Oops, an error
Loading. Please wait.

Drunkship Of Lanterns Bass Tab

version 1
version 1

Whole song

Interactive

5,247 views 3 this week
no commentswrite comment
1 2 3 4 5
excellent!
x 3
add to favorites
launch autoscroll
font size
0
reset
guitar tuner
Tab Pro tools
  • play this tab
  • loop segment
  • change instrument
  • show fretboard
  • metronome
×
Best way to learn
"Drunkship Of Lanterns"
Autoscroll
slow
fast
+/-
esc
set tempo
stop
Contributor
Difficulty
intermediate
-------------------------------------------------------------------------------
			     Drunkship of Lanterns - The Mars Volta
-------------------------------------------------------------------------------

This is not my tab. I just found it and decided to submit it because there wasn't a bass 
for Drunkship already.

The mars volta
drunkship of lanterns
tabbed by rob saunders

intro riff:  x4
g|-------------------------|
d|-------------------------|
a|-----3-----3-----3-5-5-5-|
e|-5-5---5-5---5-5---------|

verse riff:x7
g|---------------------------|
d|---------------------------|
a|-----7-----7-----7---------|
e|-5-5---5-5---5-5---5-3-3-3-|

g|-------------------|
d|-------------------|
a|-----8-------------|
e|-5-5--------0-0-8--|

g|-------------------------------------|
d|-10-12-12-10-12-12-10-12-12-13-13-13-|  x2
a|-------------------------------------|
e|-------------------------------------|

g|-------------------------|
d|-------------------------| x2
a|-----3-----3-----3-5-5-5-|
e|-5-5---5-5---5-5---------|


g|-------------------------------------|
d|-10-12-12-10-12-12-10-12-12-13-13-13-|  x2
a|-------------------------------------|
e|-------------------------------------|

verse riff:x7
then
g|---------------|
d|---------------|
a|-----8---------|
e|-5-5----0-0-8--|

g|-------------------------------------|
d|-10-12-12-10-12-12-10-12-12-13-13-13-|  x2
a|-------------------------------------|
e|-------------------------------------|

g|-------------------------|
d|-------------------------|
a|-----3-----3-----3-5-5-5-| x2
e|-5-5---5-5---5-5---------|

g|-------------------------------------|
d|-10-12-12-10-12-12-10-12-12-13-13-13-| x2
a|-------------------------------------|
e|-------------------------------------|

g|-------------------------|
d|-------------------------|
a|-----3-----3-----3-5-5-5-| x2
e|-5-5---5-5---5-5---------|

g|-------------------------------------|
d|-10-12-12-10-12-12-10-12-12-13-13-13-| x2
a|-------------------------------------|
e|-------------------------------------|

fast breakdown part:
g|-----------------|
d|-----------------|
a|-----------------|
e|-3h5-3h5-5-5-5-5-|  x4

g|--------|
d|--------|
a|--------|
e|--5-5-5-|

bridge part:
g|-------------------------------------|
d|-------------------------------------|
a|-------------------------------------| x3
e|-2--2-2--2-2--2-2--0-0-0-0-0-0-0-0-0-|

g|----------------2--------------------|
d|-------------------------------------|
a|-------------------------------------|
e|-2--2-2--2-2--2----0-0-0-0-0-0-0-0-0-|

g|----------11----------------11---------------------------|
d|-----9h11----11--------9h11----11------------------------|
a|-9-9------------9--9-9------------9----------------------| x2
e|------------------------------------11-11-11-11-11-11-13-|

intro riff:x4
verse riff: x7

g|---------------|
d|---------------|
a|-----8---------|
e|-5-5----0-0-8--|

g|-------------------------------------|
d|-10-12-12-10-12-12-10-12-12-13-13-13-|
a|-------------------------------------| x2
e|-------------------------------------|

g|-------------------------|
d|-------------------------|
a|-----3-----3-----3-5-5-5-| x2
e|-5-5---5-5---5-5---------|


g|-------------------------------------|
d|-10-12-12-10-12-12-10-12-12-13-13-13-| x2
a|-------------------------------------|
e|-------------------------------------|

g|-------------------------|
d|-------------------------|
a|-----3-----3-----3-5-5-5-| x2
e|-5-5---5-5---5-5---------|


g|-------------------------------------|
d|-10-12-12-10-12-12-10-12-12-13-13-13-| x2
a|-------------------------------------|
e|-------------------------------------|

weird breakdown:
g|--------------------------------------------|
d|--------------------------------------------|
a|---------5b-6b-9b---------5b---9b---11b-----|
e|-0-----------------0------------------------|
(this isn’t the exact way but its just bending notes on the A-string)

fast breakdown part:
g|-----------------|
d|-----------------|
a|-----------------| x4
e|-3h5-3h5-5-5-5-5-|

g|--------|
d|--------|
a|--------| x4
e|--5-5-5-|

g|--------------------|
d|--------------------|
a|--------------------|
e|-3h5-3h5-5-5-5-5/12-|
( the slide to the 12 is necessary as it is the guitar,I just like playing it)

play the breakdown parts for the rest of the song, except at end play
E-00-------00-0-0-0-00------00-----00-----00-0-0-0------00----00---00-0-0--
comments
We did not receive enough feedback on this tab! Please rate:
print report bad tab
1 2 3 4 5
I want to post or [tab]
guest
You may want to rate the tab now too:
select rating
Please do not post tabs as comments. Select "correction" instead!