Oops, an error
Loading. Please wait.

Eunuch Provocatuer Bass Tab

841 views 1 this week
2 commentsread comments
1 2 3 4 5
poor
x 2
add to favorites
launch autoscroll
font size
0
reset
guitar tuner
Tab Pro tools
  • play this tab
  • loop segment
  • change instrument
  • show fretboard
  • metronome
Autoscroll
slow
fast
+/-
esc
set tempo
stop
Contributor
Difficulty
intermediate
-------------------------------------------------------------------------------
			   Eunuch Provocatuer - The Mars Volta
-------------------------------------------------------------------------------

Tabbed By : nibbleschew
e-mail: fuzzycheese100@yahoo.com email me for any questions/comments
Good luck!

Tuning:Standard 
Chorus
G|------|------|------|--------|
D|------|------|------|--------|
A|--7-7-|--7-7-|------|--------|
E|------|------|--8-8-|-5-5-5h8|
Play 4x

Verse first time through no guitar
G|--------------|-----------|-------------|-----------------|
D|--------5-----|-----------|-------5-----|-----------------|
A|--7-5-7---7-7-|-7-5p0-----|-7-5-7---7-7-|-7-5p0-----------|
E|--------------|-------55-7|-------------|-------33-5-55-7-|

Verse
G|--------------|-----------|
D|--------5-----|-----------|
A|--7-5-7---7-7-|-7-5p0-----|
E|--------------|-------55-7|
Play 4x

Chorus 4x
Verse 10x
Chorus 6x

During Guitar/Keys solo, the bass plays what the 
guitar plays in the Pre-Solo
G|-------|--------|
D|-------|--------|
A|-2-----|--------|
E|---3-5-|--2-3-0-|
Plays 2x through guitar/keys solo, then 4x more at end of solo


Chorus 6x


comments
We did not receive enough feedback on this tab! Please rate:
print report bad tab
1 2 3 4 5
2 comments total.
+1 reply
wallnut wrote on January 7 2007, 12:37 pm

poor

+1 reply
beastieman wrote on December 29 2008, 05:25 pm

this is missing a great deal of the bass part...

I want to post or [tab]
guest
You may want to rate the tab now too:
select rating
Please do not post tabs as comments. Select "correction" instead!