Oops, an error
Loading. Please wait.

Goliath Bass Tab

version 2
version 2

Whole song

Interactive

3,005 views 3 this week
5 commentsread comments
1 2 3 4 5
please rate
add to favorites
launch autoscroll
font size
0
reset
guitar tuner
Tab Pro tools
  • play this tab
  • loop segment
  • change instrument
  • show fretboard
  • metronome
×
Best way to learn
"Goliath"
Autoscroll
slow
fast
+/-
esc
set tempo
stop
Contributor
Difficulty
advanced
Artist: The Mars Volta

Album: The Bedlam in Goliath



All tabs by Pedro Zappa
-----------------------------------------------------------------------------
-----------------------------------------------------------------------------


5. Goliath


Intro

4/4
G||--------------------|--------------------|
D||--------------------|--------------------|
A||--------------------|--------------------|
E||-7----9----9--------|-7----9\------------|
    i    i    i    i     i    i    i    i
5/4                          4/4
G||-------------------------|--------------------||  x2
D||-------------------------|--------------------||
A||-----------7-------------|--------------------||
E||-7----9------------------|-2---------3--------||
    i    i    i    i    i     i    i    i    i

Verse 1

4/4
G||--------------------|--------------------|
D||--------------------|--------------------|
A||--------------------|--------------------|
E||-7----9----9--------|-7----9\------------|
    i    i    i    i     i    i    i    i
5/4                          4/4
G||-------------------------|--------------------||  x6
D||-------------------------|--------------------||
A||-----------7-------------|--------------------||
E||-7----9------------------|-2---------3--------||
    i    i    i    i    i     i    i    i    i

Chorus 1

5/4
G||-------------------------|-------------------------|
D||-------------------------|-------------------------|
A||-------------------------|-------------------------|
E||-9-9--9-9--9\----------9-|-9-9--9---------9-9--9-9-|
    i    i    i    i    i     i    i    i    i    i

G||--------------------|--------------------|
D||--------------------|--------------------|
A||-7------------------|--------------------|
E||-----------------2--|-----------3--------|
    i    i    i    i     i    i    i    i

G||-------------------------|-------------------------|
D||-------------------------|-------------------------|
A||-------------------------|-------------------------|
E||-9-9--9-9--9\----------9-|-9-9--9---------9-9--9-9-|
    i    i    i    i    i     i    i    i    i    i
4/4
G||--------------------|---------------------|
D||--------------------|---------------------|
A||-7------------------|-----------4-3-2-----|
E||--------------------|-----------------4---|
    i    i    i    i     i    i    i     i

G||--------------------|--------------------|--------------------|
D||--------------------|--------------------|--------------------|
A||--------------------|--------------------|------2-------------|
E||-3--------------4---|--------------------|--------------------|
    i    i    i    i     i    i    i    i     i    i    i    i
7/4
G||-----------------------------------|
D||-----------------------------------|
A||-3---------------------------------|
E||-----------------------------------|
    i    i    i    i    i    i    i    

Verse 2

4/4
G||--------------------|--------------------|
D||--------------------|--------------------|
A||--------------------|--------------------|
E||-7----9----9--------|-7----9\------------|
    i    i    i    i     i    i    i    i
5/4                          4/4
G||-------------------------|--------------------||  x8
D||-------------------------|--------------------||
A||-----------7-------------|--------------------||
E||-7----9------------------|-2---------3--------||
    i    i    i    i    i     i    i    i    i

Chorus 2

5/4
G||-------------------------|-------------------------|
D||-------------------------|-------------------------|
A||-------------------------|-------------------------|
E||-9-9--9-9--9\----------9-|-9-9--9---------9-9--9-9-|
    i    i    i    i    i     i    i    i    i    i

G||--------------------|--------------------||  x2
D||--------------------|--------------------||
A||-7------------------|--------------------||
E||-----------------2--|-----------3--------||
    i    i    i    i     i    i    i    i

G||-------------------------|-------------------------|
D||-------------------------|-------------------------|
A||-------------------------|-------------------------|
E||-9-9--9-9--9\----------9-|-9-9--9---------9-9--9-9-|
    i    i    i    i    i     i    i    i    i    i
4/4
G||--------------------|---------------------|
D||--------------------|---------------------|
A||-7------------------|-----------4-3-2-----|
E||--------------------|-----------------4---|
    i    i    i    i     i    i    i     i

G||--------------------|--------------------|--------------------|
D||--------------------|--------------------|--------------------|
A||--------------------|--------------------|------2-------------|
E||-3--------------4---|--------------------|--------------------|
    i    i    i    i     i    i    i    i     i    i    i    i
7/4
G||-----------------------------------|
D||-----------------------------------|
A||-3---------------------------------|
E||-----------------------------------|
    i    i    i    i    i    i    i    

Solo

4/4
G||--------------------|--------------------|
D||--------------------|--------------------|
A||--------------------|--------------------|
E||-7----9----9--------|-7----9\------------|
    i    i    i    i     i    i    i    i
5/4                          4/4
G||-------------------------|--------------------||  x8
D||-------------------------|--------------------||
A||-----------7-------------|--------------------||
E||-7----9------------------|-2---------3--------||
    i    i    i    i    i     i    i    i    i

Chorus 3

5/4
G||-------------------------|-------------------------|
D||-------------------------|-------------------------|
A||-------------------------|-------------------------|
E||-9-9--9-9--9\----------9-|-9-9--9---------9-9--9-9-|
    i    i    i    i    i     i    i    i    i    i

G||--------------------|--------------------||  x2
D||--------------------|--------------------||
A||-7------------------|--------------------||
E||-----------------2--|-----------3--------||
    i    i    i    i     i    i    i    i

G||-------------------------|-------------------------|
D||-------------------------|-------------------------|
A||-------------------------|-------------------------|
E||-9-9--9-9--9\----------9-|-9-9--9---------9-9--9-9-|
    i    i    i    i    i     i    i    i    i    i
4/4
G||--------------------|---------------------|
D||--------------------|---------------------|
A||-7------------------|-----------4-3-2-----|
E||--------------------|-----------------4---|
    i    i    i    i     i    i    i     i

G||--------------------|--------------------|--------------------|
D||--------------------|--------------------|--------------------|
A||--------------------|--------------------|------2-------------|
E||-3--------------4---|--------------------|--------------------|
    i    i    i    i     i    i    i    i     i    i    i    i
7/4
G||-----------------------------------|
D||-----------------------------------|
A||-3---------------------------------|
E||-----------------------------------|
    i    i    i    i    i    i    i    

Outro

3/4
G||---------------||  x32
D||----2---2--4---||
A||-4-----4-----2-||
E||---------------||
    i    i    i  

(Full Band)
G||---------------||  x16
D||----2---2--4---||
A||-4-----4-----2-||
E||---------------||
    i    i    i  

(Lyric)
G||---------------||  x16
D||----2---2--4---||
A||-4-----4-----2-||
E||---------------||
    i    i    i  

(Solo)
G||---------------||  x16
D||----2---2--4---||
A||-4-----4-----2-||
E||---------------||
    i    i    i  

(Lyric)
G||---------------||  x24
D||----2---2--4---||
A||-4-----4-----2-||
E||---------------||
    i    i    i  

(Bass)
G||---------------||  x8
D||----2---2--4---||
A||-4-----4-----2-||
E||---------------||
    i    i    i  
G||---------------||  x32
D||-----------4-5-||
A||-4--7--47------||
E||---------------||
    i    i    i 

(Full Band)
G||---------------||  x32
D||----2---2--4---||
A||-4-----4-----2-||
E||---------------||
    i    i    i  


Tab by Pedro Zappa
-----------------------------------------------------------------------------
-----------------------------------------------------------------------------
comments
We did not receive enough feedback on this tab! Please rate:
print report bad tab
1 2 3 4 5
5 comments total. Showing first comments.
0 reply
rrr3da wrote on February 24 2012, 10:37 am

great work pedro!
you may classify this as intermediate imho ;)

0 reply
Pedro Zappa wrote on February 24 2012, 12:02 pm

yea, but the ending part, even though it's the same riff repeated you need a lot of endurance to keep it grooving all the way..

0 reply
Pedro Zappa wrote on February 24 2012, 12:03 pm

Btw, I'm tabbing the whole Bedlam in Goliath eventually..

I want to post or [tab]
guest
You may want to rate the tab now too:
select rating
Please do not post tabs as comments. Select "correction" instead!