Oops, an error
Loading. Please wait.

Ilyena Bass Tab

version 1
version 1

Whole song

Interactive

1,950 views 3 this week
no commentswrite comment
1 2 3 4 5
please rate
add to favorites
launch autoscroll
font size
0
reset
guitar tuner
Tab Pro tools
  • play this tab
  • loop segment
  • change instrument
  • show fretboard
  • metronome
×
Best way to learn
"Ilyena"
Autoscroll
slow
fast
+/-
esc
set tempo
stop
Contributor
Difficulty
advanced
Part 1
G|----------------------|
D|----------------------|
A|--5-3-4-1------5-3-4-1|
E|3~--------33333-------|X5

Part 2
G|----------------|
D|----------------|
A|----------------|
E|33-333-3-33-3333|X5 not perfect on timing but its not hard

Part 3
G|------------------------------------------|
D|--------------------------------------0---|
A|---1-1-------1-1---------1-1-------1-3-3-1|
E|3-3-3-3-1-2-3-3-3-1-2-3-3-3-3-1-2-3-------|X4

Part 1(X7)

Part 4
G|------------------|
D|------------------|
A|--------3~------1~|
E|3~~~1~~3--1~~3~~--|X3

Part 1(X6)
comments
We did not receive enough feedback on this tab! Please rate:
print report bad tab
1 2 3 4 5
I want to post or [tab]
guest
You may want to rate the tab now too:
select rating
Please do not post tabs as comments. Select "correction" instead!