Oops, an error
Loading. Please wait.

Ilyena Bass Tab

version 2
version 2

Whole song

Interactive

518 views 1 this week
no commentswrite comment
1 2 3 4 5
please rate
add to favorites
launch autoscroll
font size
0
reset
guitar tuner
Tab Pro tools
  • play this tab
  • loop segment
  • change instrument
  • show fretboard
  • metronome
×
Best way to learn
"Ilyena"
Autoscroll
slow
fast
+/-
esc
set tempo
stop
Contributor
Difficulty
advanced
Artist: The Mars Volta

Album: The Bedlam in Goliath



All tabs by Pedro Zappa
-----------------------------------------------------------------------------
-----------------------------------------------------------------------------


4. Ilyena


(wait)

Chorus 1

4/4
G||--------------------|--------------------||  x4
D||--------------------|--------------------||
A||---------5--3-4-----|---------5--3-4-----||
E||-3\--------------6--|---33-333--------6--||
    i    i    i    i     i    i    i    i

Verse 1

4/4
G||--------------------|--------------------||  x5
D||--------------------|--------------------||
A||--------------------|--------------------||
E||-3-33-33-3--33------|---33-33-3--33---333||
    i    i    i    i     i    i    i    i

Chorus 2

G||--------------------|--------------------||  x4
D||--------------------|--------------------||
A||---1--1-----1-1--1--|---1--1-----134-31--||
E||-13-3--312-3-3----13|-13-3--312-3--------||
    i    i    i    i     i    i    i    i
G||--------------------|--------------------|
D||--------------------|--------------------|
A||---1--1-----1-1--1--|---1--1-------------|
E||-13-3--312-3-3----13|-13-3--313\---------|
    i    i    i    i     i    i    i    i

Bridge

4/4
G||--------------------|--------------------||  x3
D||--------------------|--------------------||
A||---------5--3-4-----|---------5--3-4-----||
E||-3\--------------6--|---33-333--------6--||
    i    i    i    i     i    i    i    i
G||--------------------|--------------------||
D||--------------------|--------------------||
A||--------------------|--------------------||
E||-3\-----------------|--------------------||
    i    i    i    i     i    i    i    i

(wait)

Chorus 3

4/4
G||--------------------|--------------------||  x4
D||--------------------|--------------------||
A||---------5--3-4-----|---------5--3-4-----||
E||-3\--------------6--|---33-333--------6--||
    i    i    i    i     i    i    i    i

Outro (This section is almost impossible to tab so I only tabbed 
       the roots of the chords)

G||--------------------|--------------------|
D||--------------------|--------------------|
A||--------------------|--------------------|
E||-3------------------|----------------1---|
    i    i    i    i     i    i    i    i
G||--------------------|--------------------|
D||--------------------|--------------------|
A||--------------------|--------------------|
E||-3------------------|--------------------|
    i    i    i    i     i    i    i    i
G||--------------------|--------------------|
D||--------------------|--------------------|
A||-3------------------|--------------------|
E||--------------------|----------------1---|
    i    i    i    i     i    i    i    i
G||--------------------|--------------------||  x3
D||--------------------|--------------------||
A||--------------------|--------------------||
E||-3------------------|--------------------||
    i    i    i    i     i    i    i    i

Chorus 4

4/4
G||--------------------|--------------------||  x8
D||--------------------|--------------------||
A||---------5--3-4-----|---------5--3-4-----||
E||-3\--------------6--|---33-333--------6--||
    i    i    i    i     i    i    i    i

Coda

G||--------------------|--------------------||   x18
D||--------------------|--------------------||
A||--------------------|--------------------||
E||-3------------------|--------------------||
    i    i    i    i     i    i    i    i


Tab by Pedro Zappa
-----------------------------------------------------------------------------
-----------------------------------------------------------------------------
comments
We did not receive enough feedback on this tab! Please rate:
print report bad tab
1 2 3 4 5
I want to post or [tab]
guest
You may want to rate the tab now too:
select rating
Please do not post tabs as comments. Select "correction" instead!