Oops, an error
Loading. Please wait.

Lvia Lviaquez Bass Tab

version 1
version 1

Whole song

Interactive

6,647 views 18 this week
4 commentsread comments
1 2 3 4 5
worth learning
x 4
add to favorites
launch autoscroll
font size
0
reset
guitar tuner
Tab Pro tools
  • play this tab
  • loop segment
  • change instrument
  • show fretboard
  • metronome
×
Best way to learn
"Lvia Lviaquez"
Autoscroll
slow
fast
+/-
esc
set tempo
stop
Contributor
MARS VOLTA- L'VIA L'VIAQUEZ

Tuning- Standard

okay so when the mad guitar solo in this song starts you go to this
-----------------------------|
-----------------------------|
-------1---------------------|
-1-1333--313-----------------|

do that through the verses then towards the end of the verse theres a little

--------------------------------|          when he goes YEAAAH YEAAAAAAAH YEYEAHAAAH
---------------------- 4x then -|
----------------------         -|
-3113-3-13313-3--------        -|
-0h3--6--0----------------------|

then the chorus is
-----------------------------|
-----------------------------|
-----------------------------|
-33--66-00---55-33-----------| you do that twice just before he goes
                              "Blackmailed she fell off every mountain"

do that until he goes "I wont forget who im lookin for.. oh mother help me Im looking for"
then back to
-----------------------------|
-----------------------------|
-------1---------------------|
-1-1333--313-----------------| then do that until


------------------------|
------------------------|   another 4 times then
------------------------|
-3113-3-13313-3---------|

-----------------------------|
-----------------------------|
-----------------------------|
-0h3--6--0-------------------|

back to chorus

-----------------------------|
-----------------------------|
-----------------------------|
-33--66-00---55-33-----------|

then after that there is a little interlude bit which is just the

----------------------|
----------------------|
----------------------|
-3113-3-13313-3-------| X Heaps

then after youve done that for ages of the song there is a mad drumming bit
then back to

-----------------------------|
-----------------------------|
-----------------------------|
-0h3--6--0-------------------|

then chorus

-----------------------------|
-----------------------------|
-----------------------------|
-33--66-00---55-33-----------|

that song is fantastic... Please rate this tab.. I wanna know how i did
comments
print report bad tab
4 comments total. Showing first comments.
0 reply
vegaboy10 wrote on February 14 2006, 09:04 pm

hey dude. uhm, i wanted to let you know that ur tab is alright in a way, but what you need to do is make the tab more understandable and maby place it in a better format of chronilogical order. i can already play this song, and you've mostly got it, but it wouldn't earn a very good rating from me, atleast. so before i rated it, i wanted you to know this so it doesn't seem as bad as it is.

0 reply
epy wrote on March 19 2006, 01:24 pm

the only problem with the tab is during the spanish bit. it is :
|-------------
|-------------
|-------55----
|33-66------55
it doesn't go to an e there it's either a low d or a d. if u don't want to tune down play the d on the a.

0 reply
sean.smit wrote on July 11 2006, 11:14 pm

not very accurate...try listening to it a lot more

I want to post or [tab]
guest
You may want to rate the tab now too:
select rating
Please do not post tabs as comments. Select "correction" instead!