Oops, an error
Loading. Please wait.

Miranda That Ghost Just Isnt Holy Anymore Bass Tab

version 1
version 1

Whole song

Interactive

1,551 views 1 this week
no commentswrite comment
1 2 3 4 5
please rate
add to favorites
launch autoscroll
font size
0
reset
guitar tuner
Tab Pro tools
  • play this tab
  • loop segment
  • change instrument
  • show fretboard
  • metronome
×
Best way to learn
"Miranda That Ghost Just Isnt Holy Anymore"
Autoscroll
slow
fast
+/-
esc
set tempo
stop
Contributor
Difficulty
intermediate
Band: The Mars Volta
Song: Miranda That Ghost Just Isn't Holy Anymore
Album: Frances The Mute

Track 4: A. Vade Mecum

(4:01) lightly in the backround
G:----------------------------------------------------------------------------------|
D:----------------------------------------------------------------------------------|
A:---------------------------------------------------------------------13---13---13-|
E:-10------10--8/0------8--10------10--8/0------8--10---10---10---10----------------|

G:----------------------------------------------------------------------------:
D:----------------------------------------------------------------------------:
A:---13---10---10---10---10-----------------------8---7---10---8---7---10-----:
E:----------------------------10---10---10---10-----------------------------10:

very soft and spread-out, listen closely for better timing
(5:11)   (5:42)   (5:49)   (6:00)   (6:18)   (6:26)        (6:35)   (6:46)
G:----:  G:----:  G:----:  G:----:  G:----:  G:---------:  G:----:  G:-------:
D:----:  D:----:  D:----:  D:----:  D:----:  D:---------:  D:----:  D:-------:
A:-13-:  A:-13-:  A:-10-:  A:----:  A:----:  A:-------13:  A:-10-:  A:-------:
E:----:  E:----:  E:----:  E:-10-:  E:-10-:  E:-10------:  E:----:  E:-13--10:

(7:04)   (7:22)      (7:26)
G:----:  G:-------:  G:-----------------------------:
D:----:  D:-------:  D:---------------------------12:
A:-13-:  A:-------:  A:-8---7---10---8---7---10-----:
E:----:  E:-10--10:  E:-----------------------------:

(7:45)
G:----------------------------------------------------------------------------------|
D:----------12------12/15---15/17/12-12------12/15---17---15------------------------|
A:-7/0------------------------------------------------------------------------15/10-|
E:-------------------------------------------------------------13-----13--13--------|

G:---------------------------------------------:
D:------12--------8/10/8---------8-7-----8-7---:
A:-10--------10----------5---7-------8-------10:
E:---------------------------------------------:

(8:23)
G:------------------------------------------------------------:
D:------------------------------------------------------------:
A:-8---7---10---8---7---10---8---7---10---8---7---10---10-----:
E:----------------------------------------------------------10:

(8:53)
G:---------------------14:
D:-12--------12---15-----:
A:------12---------------:
E:-----------------------:

(9:02) last four fade out, only other stringed instruments here
G:---------------------14:
D:-----------------------:  x23
A:-----------------------:
E:-----------------------:

(11:51)
G:---------|
D:---------|
A:---5-6-7-|
E:-7-------|

G:-----------------------:
D:-----------------------:  x3
A:------------------5-6-7:
E:-0---3---5--6---7------:

G:--------------------------------------------------------------------------------|
D:--------------------------------------------------------------------------------|
A:-----------------------5-6-7--------------------5-6-7--------------------5-6-7--|
E:-0---0-3---0-5-0-6---7---------0---3--5-0-6---7---------0---3---5--6---7--------|

G:------------------------------------------------------:
D:------------------------5-----------------------------:
A:------------------5-6-7---7----------------------5-6-7:
E:-0---3---5--6---7-------------0---3--0-5-0-6---7------:

G:-----------------------:
D:-----------------------:
A:------------------5-6-7:  x4
E:-0---3---5--6---7------:

G:----------------------------------------------------------------------------------|
D:------------------------5-----------------------------------------------------5-7-|
A:------------------5-6-7---7--------------------5-6-7--------------------5-6-7-----|
E:-0---3---5--6---7-------------0---3---5--6---7---------0---3---5--6---7-----------|

G:-------------------------------------------------------------------:
D:-------------------------------------------------5-----------------:
A:------------------5-6-7--------------------5-6-7---7---------------:
E:-0---3---5--6---7---------0---3---5--6---7-------------0---3---5--6:
__________________________________________________________________________________________

Track 5: B. Pour Another Icepick

(0:00)
G:------------------------------------------------------------------------------:
D:------------------------------------------------------------------------------: x3
A:-7----7--7----5--7---5-7-7-77------7-7-77----------7-7-77------7-7-77---------:
E:-------------------------------5-7---------0-0-5-7---------5-7---------0-0-5-7:

(0:41)
G:--------------------------------------------------:
D:--------------------------------------------------:  x4
A:--------------3--3----2-22---0-00--------000222335:
E:-0---------------------------------333222---------:

G:--------------------------------------------------:
D:--------------------------------------------------:
A:--------7-----3--3----2-22---0-00--------000222335:
E:-0---------------------------------333222---------:

G:--------------------------------------------------:
D:--------------------------------------------------:
A:--------------3--3----2-22---0-00--------000222335:
E:-0------0--------------------------333222---------:

G:--------------------------------------------------:
D:--------------------------------------------------:
A:--------7-----3--3----2-22---0-00--------000222335:
E:-0---------------------------------333222---------:

G:-------------------------------------------------------------------------------:
D:--------14/7------------------------------------------555774--------5-555-5-5-5:
A:--------------3--3----2-22---0-00--------0022233355777-------------------------:
E:-0---------------------------------333222--------------------------------------:

(2:20)
G:------------------------------------------------:
D:--------------------------------------5--4--2--0:
A:----235---2353--2--0----------------------------:
E:-0-----0--------------3--5--3535--353-----------:

G:---------------------------------------------:
D:--------------------------------------5--4--2:
A:----235---2353--2--0-------------------------:
E:-0-----0--------------3--5--3535--353--------:

(2:36)
G:--------------------------------------------------:
D:--------------------------------------------------:
A:--------7-----3--3----2-22---0-00--------000222335:
E:-0---------------------------------333222---------:

G:--------------------------------------------------:
D:--------------------------------------------------:  x3
A:--------------3--3----2-22---0-00--------000222335:
E:-0------0--------------------------333222---------:

G:-------------------------------------------------------------------------------:
D:--------14/7------------------------------------------555774--------5-555-5-5-5:
A:--------------3--3----2-22---0-00--------0022233355777-------------------------:
E:-0---------------------------------333222--------------------------------------:

(3:40)
G:------------------------------------------------:
D:--------------------------------------5--4--2--0:  x3
A:----235---2353--2--0----------------------------:
E:-0-----0--------------3--5--3535--353-----------:

G:---------------------------------------------:
D:--------------------------------------5--4--2:
A:----235---2353--2--0-------------------------:
E:-0-----0--------------3--5--3535--353--------:

(4:10) listen closely for the timing, it's alittle different every other time
G:---------------------------------------------------------------------------------|
D:---------------------------------------------------------------------------------|
A:------5--0--2-----------5--0--------------5-7-----------5--0--2----------5--0----|
E:-0-----------------0----------7--7--7--7------5-7--0-----------------0---------7-|

G:--------------------------------------------------------------------------------|
D:--------------------------------------------------------------------------------|
A:-----------7-5-----------5--0--2-----------5--0--------------7-5-----------5--0-|
E:--7--7--7------7-5--0-----------------0----------7--7--7--7------7-5--0---------|

G:------------------------------------------:
D:------------------------------------------:
A:-2----------5--0--------------------------:
E:--------0---------7--7--7--7--7--7--333333:
__________________________________________________________________________________________

Track 6: C. Pisacis (Phra-men-ma)

(0:00) you can play the 0 as a 5 on the E string, but it's easier this way
G:-------------------------:
D:------5-----5-----5-----5:  x4
A:-77757-77757-77757-0--57-:
E:--------------------67---:

G:-------------------------:
D:------------------------5:  x2
A:-7777777777777777770--57-:
E:--------------------67---:

G:-------------------------:
D:------5-----5-----5-----5:  x4
A:-77757-77757-77757-0--57-:
E:--------------------67---:

G:-------------------------:
D:------------------------5:  x2
A:-7777777777777777770--57-:
E:--------------------67---:

G:----------------------------:
D:---------------------------5:  x4
A:-7------7------7------0--57-:
E:----0-0----0-0----0-0--67---:

(1:00)
G:-------------------------:
D:------------------------5:  x28
A:-7--5757--5757--5750--57-:
E:--------------------67---:

(2:44) pluck the 7s
G:-------------------:
D:-----------------5-:  x7
A:-7/2/7/2/7/2/-----5:
E:-------------5557--:

G:--------------------:
D:--------------------:
A:-7/2/7/2/7/2/------5:
E:-------------33357--:

(3:14)
G:-------------------------:
D:------------------------5:
A:-7-7-57-7-57/10-7-5---57-:
E:-------------------777---:

G:------------------------------------------:
D:-----------------------------------------5:  x2
A:-7-7-57-7-57-7-57-7-57-7-57-7-57-7-5---57-:
E:------------------------------------777---:

G:-----------------------:
D:-----------------------:
A:-7-7-57-7-57-7-55555-57:
E:--------------------7--:

G:-------------------------------------------------:
D:---------------------5-------5566775544----------:
A:-7-7-57-7-57-7-5---57--777777----------7750535---:
E:----------------777---------------------------530:<-------------------|
                                                                        |
(3:44) this part starts off with the same 0 as the last played above -----|
G:------------------------------------------------------------------------|
D:------------------------9---8---7/0:------------------------------------|
A:-----5h7---6---5/0------------------------------------------------------|
E:-0------------------0---------------------------------------------------|

G:--------------------------------------:
D:--------5-5-5-5-4-5--------5-5-5-5-4-0:  x2
A:-7------------------7-----------------:
E:---0-0----------------0-0-------------:

G:-------------------------------------:
D:-------5-5-5-5-4-5--------5-5-5-5-4-0:  x2
A:-7--7--------------7-----------------:
E:---------------------0-0-------------:

G:-----------------------------------:
D:-----5-5-5-5-4-5--------5-5-5-5-4-0:
A:-7/0-------------7-----------------:
E:-------------------0-0-------------:

G:---------------------------------------------------------------|
D:-------5-5-5-5-4-5--------5-5-5-5-4-0-------5-5-5-5-4-5--------|
A:-7--7--------------7------------------7--7--------------7------|
E:---------------------0-0----------------------------------0-0--|.more to come
comments
We did not receive enough feedback on this tab! Please rate:
print report bad tab
1 2 3 4 5
I want to post or [tab]
guest
You may want to rate the tab now too:
select rating
Please do not post tabs as comments. Select "correction" instead!