Oops, an error
Loading. Please wait.

Rapid Fire Tollbooth Bass Tab

417 views 1 this week
no commentswrite comment
1 2 3 4 5
please rate
add to favorites
launch autoscroll
font size
0
reset
guitar tuner
Tab Pro tools
  • play this tab
  • loop segment
  • change instrument
  • show fretboard
  • metronome
×
Best way to learn
"Rapid Fire Tollbooth"
Autoscroll
slow
fast
+/-
esc
set tempo
stop
Contributor
The Mars Volta - Rapid Fire TollBooth
Album - Se Dice Bisonte, No Bufalo
Bassist - Juan Alderete
Tabbed by: myspace.com/jenovaisback

Standard Tuning

time signatures shown for each section, kinda


  4/4      4/4      5/4      4/4
G|--------|--------|--------|--------|
D|--------|--------|----2---|--------|
A|2-4-4---|2-4-----|2-4-----|--------|
E|--------|--------|--------|2---3---|

G|--------|-----64-|--------|--------|
D|--------|--------|----2---|--------|
A|2-4-4---|2-4-----|2-4-----|--------|
E|--------|--------|--------|2---3---|

G|--------|-------4|--------|--------|
D|--------|----456-|----2---|--------|
A|2-4-4---|2-4-----|2-4-----|--------|
E|--------|--------|--------|2---3---|

G|--------|--------|--------|--------|
D|--------|--------|--------|--------|
A|2-4-4---|2-4-----|2-4-----|--------|
E|--------|--------|----0---|2---3---|

G|--------|--------|--------|--------|
D|--------|--------|----2---|--------|
A|2-4-4---|2-4--7/-|2-4-----|--------|
E|--------|--------|--------|2---3---|

G|--------|-----46-|--------|--------|
D|--------|--------|----2---|--------|
A|2-4-4---|2-4-----|2-4-----|--------|
E|--------|--------|--------|2---3---|

G|--------|--------|--------|--------|
D|--------|--------|--------|--------|
A|2-4-4---|2-4-----|2-4-7/--|--------|
E|--------|--------|--------|2---3---|

G|--------|--------|--------|--------|
D|--------|--------|----2---|--------|
A|2-4-4---|2-4-----|2-4-----|--------|
E|--------|--------|--------|2---3---|



  4/4      4/4      5/4      5/4
G|--------|--------|--------|--------|
D|--------|--------|--------|--------|
A|24444---|-2444---|2444----|--------|
E|--------|--------|----0---|2---3---|

  4/4      4/4       5/4     3/4
G|--------|--------|--------|--------|
D|--------|--------|--------|--------|
A|24444---|-2444---|2444----|--------|
E|--------|--------|----0---|--------|



  5/4        6/4      4/4      4/4
G|----------|--------|--------|--------|
D|----------|--------|--------|--------|
A|42--------|--------|2-----3-|--------|
E|--43-2----|4-------|--------|--------|



G|--------|--------|--------|--------|
D|--------|--------|----2---|--------|
A|2-4-4---|2-4-----|2-4-----|--------|
E|--------|--------|--------|2---3---|

G|--------|-----64-|--------|--------|
D|--------|--------|----2---|--------|
A|2-4-4---|2-4-----|2-4-----|--------|
E|--------|--------|--------|2---3---|

G|--------|-------4|--------|--------|
D|--------|----456-|----2---|--------|
A|2-4-4---|2-4-----|2-4-----|--------|
E|--------|--------|--------|2---3---|

G|--------|--------|--------|--------|
D|--------|--------|--------|--------|
A|2-4-4---|2-4-----|2-4-----|--------|
E|--------|--------|----0---|2---3---|

G|--------|--------|--------|--------|
D|--------|--------|----2---|--------|
A|2-4-4---|2-4--7/-|2-4-----|--------|
E|--------|--------|--------|2---3---|

G|--------|-----46-|--------|--------|
D|--------|--------|----2---|--------|
A|2-4-4---|2-4-----|2-4-----|--------|
E|--------|--------|--------|2---3---|

G|--------|--------|--------|--------|
D|--------|--------|--------|--------|
A|2-4-4---|2-4-----|2-4-7/--|--------|
E|--------|--------|--------|2---3---|

G|--------|--------|--------|--------|
D|--------|--------|----2---|--------|
A|2-4-4---|2-4-----|2-4-----|--------|
E|--------|--------|--------|2---3---|



G|--------|--------|--------|--------|
D|--------|--------|--------|--------|
A|24444---|-2444---|2444----|--------|
E|--------|--------|----0---|2---3---|

G|--------|--------|--------|--------|
D|--------|--------|--------|--------|
A|24444---|-2444---|2444----|--------|
E|--------|--------|----0---|--------|

G|--------|--------|--------|--------|
D|--------|--------|--------|--------|
A|24444---|-2444---|2444----|--------|
E|--------|--------|----0---|2---3---|

G|--------|--------|--------|--------|
D|--------|--------|--------|--------|
A|24444---|-2444---|2444----|--------|
E|--------|--------|----0---|--------|



G|----------|--------|--------|--------|
D|----------|--------|--------|--------|
A|42--------|--------|2-----3-|--------|
E|--43-2----|4-------|--------|--------|



G|--------|--------|--------|--------|
D|--------|-----456|----2---|--------|
A|2-4-4---|2-4-----|2-4-----|--------|
E|--------|--------|--------|2---3---|

G|--------|-----64-|--------|--------|
D|--------|-------4|----2---|--------|
A|2-4-4---|2-4-----|2-4-----|--------|
E|--------|--------|--------|2---3---|

G|--------|--------|--------|--------|
D|--------|--------|----2---|--------|
A|2-4-4---|2-4-----|2-4-----|--------|
E|--------|--------|--------|2---3---|

G|--------|--------|--------|--------|
D|--------|--------|----2---|--------|
A|2-4-4---|2-4-----|2-4-----|--------|
E|--------|--------|--------|2---3---|

G|--------|-----464|--------|--------|
D|--------|--------|----2---|--------|
A|2-4-4---|2-4-----|2-4-----|--------|
E|--------|--------|--------|2---3---|

G|--------|--------|--------|--------|
D|--------|--------|--------|--------|
A|2-4-4---|2-4-----|2-4-7/--|--------|
E|--------|--------|--------|2---3---|

G|--------|--------|--------|--------|
D|--------|--------|----2---|--------|
A|2-4-4---|2-4-----|2-4-----|--------|
E|--------|--------|--------|2---3---|

G|--------|--------|--------|--------|
D|--------|--------|----2---|--------|
A|2-4-4---|2-4-----|2-4-----|--------|
E|--------|--------|--------|2---3---|

G|--------|--------|--------|--------|
D|--------|--------|----2---|--------|
A|2-4-4---|2-4-----|2-4-----|--------|
E|--------|--------|--------|2---3---|

G|--------|--------|--------|--------|
D|--------|--------|----7/--|--------|
A|2-4-4---|2-4-----|2-4-----|--------|
E|--------|--------|--------|2---3---|

G|--------|-----464|--------|--------|
D|--------|--------|----2---|--------|
A|2-4-4---|2-4-----|2-4-----|--------|
E|--------|--------|--------|2---3---|
  


G|--------|--------|--------|--------|
D|--------|--------|--------|--------|
A|24444---|-2444---|2444----|--------|
E|--------|--------|----0---|2---3---|

G|--------|--------|--------|--------|
D|--------|--------|--------|--------|
A|24444---|-2444---|2444----|--------|
E|--------|--------|----0---|--------|

G|--------|--------|--------|--------|
D|--------|--------|--------|--------|
A|24444---|-2444---|2444----|--------|
E|--------|--------|----0---|2---3---|

G|--------|--------|--------|--------|
D|--------|--------|--------|--------|
A|24444---|-2444---|2444----|--------|
E|--------|--------|----0---|--------|



G|----------|--------|--------|--------|
D|----------|--------|--------|--------|
A|42--------|--------|2-----3-|--------|
E|--42-3----|4-------|--------|--------|

G|--------|
D|--------|
A|24444---|
E|--------|

comments
We did not receive enough feedback on this tab! Please rate:
print report bad tab
1 2 3 4 5
I want to post or [tab]
guest
You may want to rate the tab now too:
select rating
Please do not post tabs as comments. Select "correction" instead!