Oops, an error
Loading. Please wait.

Take The Veil Cerpin Taxt Bass Tab

version 1
version 1

Whole song

Interactive

8,684 views 6 this week
10 commentsread comments
1 2 3 4 5
accurate
x 10
add to favorites
launch autoscroll
font size
0
reset
guitar tuner
Tab Pro tools
  • play this tab
  • loop segment
  • change instrument
  • show fretboard
  • metronome
×
Best way to learn
"Take The Veil Cerpin Taxt"
Autoscroll
slow
fast
+/-
esc
set tempo
stop
Contributor
Difficulty
intermediate
Band: The Mars Volta
Song: Take The Veil Cerpin Taxt
Album: De-Loused In The Comatorium

(0:00-0:07)
scale.  too hard to tab, just improvise.

(0:07)
G:-----------------------:
D:-----------------------:
A:-5-----5-5--3-0--------:
E:----------------4-3-1-0:

G:---------------------------:
D:---------------------------:  x7
A:-5--5-5----5-5--3-0--------:
E:--------------------4-3-1-0:

G:---------------------------------------------------:
D:---------------------------------------------------:
A:-5--------5-5--------5-5--------5-5--------5-5--3-5:
E:---------------------------------------------------:

G:-----------------:
D:-----------------:
A:-5-5--3-0--------:
E:----------4-3-1-0:

G:---------------------------:
D:---------------------------:  x2
A:-5--5-5----5-5--3-0--------:
E:--------------------4-3-1-0:

G:-----------------------------------------------------------------------:
D:-----------------------------------------------------------------------:
A:-5--5-5----5-5--3-0----------------------------------------------------:
E:--------------------4-3-1---10~-------10-10--------10-10/0--------10-10:

(1:01)
G:---------------------------------------------------------------------------------|
D:---------------------------3--3--3-----------------------------------------------|
A:-5-5-5-5-5-5-5-----------------------------3--5-5-5-5-5-5-5-5--------------------|
E:-----------------6--6--6-------------6--6----------------------6--6--6-0-3-3-3-3-|

G:------------------------:
D:------------------------:  x2
A:------------------------:
E:-3-3-3-3-5-5-5-5-5-5-5-5:

(1:21)
G:----------------------:
D:----------------------:
A:-5----5-5--3-0--------:
E:---------------4-3-1-0:

G:---------------------------:
D:---------------------------:  x5
A:-5--5-5----5-5--3-0--------:
E:--------------------4-3-1-0:

G:--------------------------------------------:
D:--------------------------------------------:
A:--------------------------------------------:
E:-10~-------10-10--------10-10--------10-10/0:

(1:48)
G:---------------------------------------------------------------------------------|
D:---------------------------3--3--3-----------------------------------------------|
A:-5-5-5-5-5-5-5-----------------------------3--5-5-5-5-5-5-5-5--------------------|
E:-----------------6--6--6-------------6--6----------------------6--6--6-0-3-3-3-3-|

G:------------------------:
D:------------------------:  x2
A:------------------------:
E:-3-3-3-3-5-5-5-5-5-5-5-5:

(noise)

(2:27)
G:------------------------------------------:
D:------------------------------------------:  x3
A:-------3-----4---5-5-5-5-5-5--5--5--5--5-5:
E:-5--3-----3-------------------------------:

G:------------------------------------------14-13-12----12-----:
D:------------------------------------10/12----------15----15/0:
A:-------3-----4-----------------------------------------------:
E:-5--3-----3------10-10-10-10-10-10---------------------------:

G:--------------:     G:----:
D:--------------:  x4 D:----:
A:-------3-----4:     A:-5~-:
E:-5--3-----3---:     E:----:

(noise)

(4:36)
G:--------------------------------------------------------------------------------|
D:10h12-12-12-12--12--10-------10h12-12-12-12--12-12--10-----------------10h12-12-|
A:-----------------------12------------------------------12--11-10----------------|
E:-----------------------------------------------------------------13-------------|

G:----------------------------------------------------------------10------------|
D:12-12--12-12--12--10h12p10----10-----------------10-----10--------------10----|
A:---------------------------12----12--10-12-12-12-----12-----12-------12----12-|
E:------------------------------------------------------------------------------|

G:--------------------------------------------------------9h10p9-----------------|
D:-10h12-12-12-12----10h12p10-----10----------10h12-12-12--------12--10h12p10----|
A:----------------------------12-----12-10------------------------------------12-|
E:-----------------------------------------13------------------------------------|

G:------------------------------------------------------------10--12--10--12--|
D:-10h12p10--------------------------10--------10h12-12-12-12-----------------|
A:----------12-10-------------10-12-----12--12--------------------------------|
E:----------------13--10---10-------------------------------------------------|

G:-101012-10-12-10---:
D:-----------------12:
A:-------------------:
E:-------------------:

(4:58) this is the hard part because it's hard to hear, i'm still working on it
G:---------------------------------------------------------------------------------|
D:-----3---------------------------------------------------------3-------3---------|
A:-5------5--3----------------3-3-3-5--3--3-5-3--------------3-5----5--5---5-3h5-5-|
E:-------------6-5-3-0--0-5-5-------------------5-3-0--0-3-5-----------------------|

G:--------------------------------------------|
D:--------------------------------------------|
A:---5----------------------------------------|
E:-----0--0--3--3--5--5--5-5-5-5-5-5--5/1-1-1-|..more to come

(6:04)
G:--------------------------------------------------------------------------------|
D:-----12--10-----12-10----------------------12--10-12-10----------------------12-|
A:-------------12-------10-12----12------12---------------10-12~---12------12-----|
E:-10-------------------------------10--------------------------------10----------|

G:---------------------------------------------------------------------------------|
D:-10-12-10--------------------12--10-12-10-----------10-12-----------12--10-12-10-|
A:----------10-12~---------12---------------10-(12)---------------12---------------|
E:--------------------10-------------------------------------10--------------------|
  play the (12)s short
G:--------------------------------------------------------------------------------:
D:----------------------12--10-12-10----------------------12--10-12-10------------:
A:-10-12----12------12---------------10-(12)----------12---------------10-12----12:
E:-------------10--------------------------------10-------------------------------:

G:---------------------------------:
D:----------12--10-12-10-----------:  x2
A:------12---------------10-12~----:
E:-10------------------------------:

G:-------------------------------------------------------------------12-10----10-|
D:----------12--10-12-10-------------12-10-------------12-10---------------12----|
A:------12---------------10-12----12-------10-12----12-------10-(12)-------------|
E:-10----------------------------------------------------------------------------|

G:--------------------------------:
D:-12-10-------------12-10--------:
A:-------10-12----12-------10-12/0:
E:--------------------------------:

(7:11)
G:----------------------------------------------------------------------------7--5-|
D:---------------------------------------------------------------------------------|
A:-------3-----4---5-5-5-5-5-5--5--5--5--5-5--------3-----4---5-5-5-5-5-5--5-------|
E:-5--3-----3---------------------------------5--3-----3---------------------------|

G:-----:
D:--7-5:
A:-----:
E:-----:

G:------------------------------------------:
D:------------------------------------------:  x2
A:-------3-----4---5-5-5-5-5-5--5--5--5--5-5:
E:-5--3-----3-------------------------------:

G:--------------:     G:---:
D:--------------:  x4 D:---:
A:-------3-----4:     A:-5-:
E:-5--3-----3---:     E:---:

(7:50)
G:---------------------------------------------------------------------------------|
D:---------------------------------------------------------------------------------|
A:-5-5--5--5-------------------------------------5-5--5--5-------------------------|
E:-----------5-5--5--5-5-5--5--5--0-0-0-0-0-0-0------------5-5--5--5-5-5--5--5-0-0-|

G:------:
D:------:  x2  
A:------:
E:--0--0:

G:--------------------------------------------------------:
D:--------------------------------------------------------:
A:-5-5--5--5----------------------------------------------:
E:-----------5-5--5--5-5-5--5----0-0-0-0-0-0-0-0-0-0-0-0-0:

(8:10)
G:--------------------------------------------------------------------------------|
D:--------------------------------------------------------------------------------|
A:-5-555-55-55---5-555-55-55------------------------------------------------------|
E:-----------------------------5-555-55-55---5-555-55-55---3-333-33-33---0-000-00-|

G:------------------------------:     G:------------:
D:------------------------------:  x2 D:------------:
A:-----4-444-44-44---4-444-44-44:     A:-5-555-55-55:
E:00----------------------------:     E:------------:
comments
print report bad tab
10 comments total. Showing first comments.
-1 reply
wallnut wrote on January 17 2007, 11:54 am

not great

0 reply
Jordashio wrote on April 20 2007, 10:58 pm

Not bad, actually.
It's a really hard song to tab, I've been trying to as well.

But your's is not bad.
Keep it up!

0 reply
tumples wrote on May 14 2008, 12:58 pm

I liked it, mostly accurate. Good job.

I want to post or [tab]
guest
You may want to rate the tab now too:
select rating
Please do not post tabs as comments. Select "correction" instead!