Oops, an error
Loading. Please wait.

Take The Veil Cerpin Taxt solo tab

version 2
version 2

Solo

Whole song

Interactive

11,818 views 6 this week
6 commentsread comments
1 2 3 4 5
x 6
add to favorites
×
Save as Personal and add changes to this tab that will be seen only by you. Learn more ›
×
You can save this tab as Personal to edit and correct it or add notes. All changes will be seen only by you. Learn more »
launch autoscroll
font size
0
reset
how to read this tab
guitar tuner
backing track
0:00
0:00
edit
Autoscroll
slow
fast
+/-
esc
set tempo
stop
Author
Difficulty
Band: The Mars Volta
Albm: De-Loused In The Comatorium
Song: Take The Veil Cerpin Taxt
Part: 3:40-4:36

Guitar Interpretation by Andrew Cheong [20060209]

=================================================

This part is a repetition of two measures in 19/16 time.

[3:40-4:36; 19/16 "Psychopath" Solo]

e|--------------------------------------|--------------------------------------|
B|--------8---9-----------6---0---------|--------6---7-------------------------|
G|--7-------7---8p7p0-------0---7-------|--5-------5---6p5p0-----8p0---5p0-----| x5 w/ Distortion
D|0---0h6-------------8-----------0h8p0-|----5p4-------------6p0-----7----h6p0-| x4 w/ RoboTalk
A|----------------------7---------------|3-------------------------------------|
E|--------------------------------------|--------------------------------------|
  d u d   u d u d     u d u d u d u      d u d   u d u d     u   d   d u
            ^                     *        *

[4:36-4:58; 4/4 Bass Solo (Transcribed for Guitar)]

e|------------------------------------------------|------------------------------------------------|
B|------------------------------------------------|------------------------------------------------|
G|5--7--7--7--7--------7-----5--------------------|5--7--7--7--7-----7--7-----5--------------------|
D|------------------------------7-----------------|------------------------------7-----6--5--------|
A|------------------------------------------------|------------------------------------------8-----|
E|------------------------------------------------|------------------------------------------------|

 |1  e  +  a  2  e  +  a  3  e  +  a  4  e  +  a  |1  e  +  a  2  e  +  a  3  e  +  a  4  e  +  a  |

e|------------------------------------------------|------------------------------------------------|
B|------------------------------------------------|---------------------------------6--------------|
G|5--7--7--7--7-----7--7-----7--5h7p5----5--------|------------5--------5--------------------5-----|
D|------------------------------------7-----7-----|5--7--7--7--------7--------7-----------7-----7--|
A|------------------------------------------------|------------------------------------------------|
E|------------------------------------------------|------------------------------------------------|

e|------------------------------------------------|------------------------------------------------|
B|------------------------------------------------|------------5h6p5-------------------------------|
G|5--7--7--7--7-----------5h7p5-------5-----------|5--7--7--7--------7--5h7p5----5h7p5-------------|
D|------------------------------7--------7--5-----|---------------------------7--------7--5--------|
A|---------------------------------------------8--|------------------------------------------8-----|
E|------------------------------------------------|------------------------------------------------|

 |1  e  +  a  2  e  +  a  3  e  +  a  4  e  +  a  |1  e  +  a  2  e  +  a  3  e  +  a  4  e  +  a  |

e|------------------------------------------------|------------------------------------------------|
B|------------------------------------------------|---6-----8-----6-----8-----6--8--6--8--6--------|
G|---------------------5--------------5-h7--7--7--|7-----------------------------------------7-----|
D|------------5-h7-----------7-----7--------------|------------------------------------------------|
A|5--------5--------------------------------------|------------------------------------------------|
E|------------------------------------------------|------------------------------------------------|

[4:58-7:11; 4/4 Improvisation Solo (Exact Transcript)]

e|------------------------------------------------|------------------------------------------------|
B|------------------------------------------------|---------------8-----8--------------------10-12-|
G|---5--------------------------------------------|---------10----------------9-----9-----9--------|
D|------7--5--7-----------------------------------|7-h9-h10----------------------------------------|
A|---------------7-h8-p7-----5-----5-----7-----8--|------------------------------------------------|
E|------------------------------------------------|------------------------------------------------|

 |1  e  +  a  2  e  +  a  3  e  +  a  4  e  +  a  |1  e  +  a  2  e  +  a  3  e  +  a  4  e  +  a  |

e|---12----10-------------------------------------|------15-------------------17----15-------------|
B|---------------10-------------------------------|---------15----17----17-------------------------|
G|------------------------------------------------|---16-------------------------------------------|
D|------------------------------------------------|------------------------------------------------|
A|------------------------------------------------|------------------------------------------------|
E|------------------------------------------------|------------------------------------------------|

e|------17-------------------------15-------15-17-|------------------------------------------------|
B|---------------18-------15-------------17-------|------15----------------------------------------|
G|------------------------------------------------|---------------14-------16-------16----16-16-13-|
D|------------------------------------------------|------------------------------------------------|
A|------------------------------------------------|------------------------------------------------|
E|------------------------------------------------|------------------------------------------------|

 |1  e  +  a  2  e  +  a  3  e  +  a  4  e  +  a  |1  e  +  a  2  e  +  a  3  e  +  a  4  e  +  a  |

e|------------------------------------------------|------------------------------------------------|
B|---------------------------(hpp)----------------|------------------------------------------------|
G|------10-------12-9--10----5750-----------------|------------------------------------------------|
D|--------------------------------h7--------------|------------------------------------------------|
A|---------------------------------------7--------|8-------5--------3------------------------------|
E|------------------------------------------------|------------------------------------------------|

e|------------------------------------------------|------------------------------------------------|
B|------------------0--------8--------------------|------------------------------------------------|
G|---------------7-----6-----------7--------------|------------------5-h7-----------------7-----7--|
D|---------5-h7--------------------------7--5-----|------7-----5-h7--------------------------------|
A|---5-h7--------------------------------------7--|---5-----5--------------------5-----------------|
E|------------------------------------------------|------------------------------------------------|

 |1  e  +  a  2  e  +  a  3  e  +  a  4  e  +  a  |1  e  +  a  2  e  +  a  3  e  +  a  4  e  +  a  |

e|5-----------------------------------------------|------------------------------12----------12----|
B|---6--------------------6-p5--------------------|---9-/10\9--10-------9--------------------------|
G|------5--------5--------------7-----------5-----|---9-/10\9-----------------------------12----12-|
D|------------------------------------------------|------------------------------------------------|
A|------------------------------------------------|------------------------------------------------|
E|------------------------------------------------|------------------------------------------------|

e|13----12----12----12----12----12----12----12----|12----10----10----10----10----10----10----10----|
B|------------------------------------------------|------------------------------------------------|
G|---12----12----12----12----12----12----12----12-|---12----12----12----12----12----12----12----12-|
D|------------------------------------------------|------------------------------------------------|
A|------------------------------------------------|------------------------------------------------|
E|------------------------------------------------|------------------------------------------------|

 |1  e  +  a  2  e  +  a  3  e  +  a  4  e  +  a  |1  e  +  a  2  e  +  a  3  e  +  a  4  e  +  a  |

e|10----------------------------------------------|------------------------------------------------|
B|------12----12----12----12----10----10----10----|10----------------------------------------------|
G|------------------------------------------------|---12-12-12-12-9--9--9--9-----------------------|
D|---12----------------------12-------------------|---------------------------10-10-10-10-12-------|
A|------------------------------------------------|------------------------------------------------|
E|------------------------------------------------|------------------------------------------------|

e|---5~~5--------------5-----------------5--5--5--|---------------------5--------------------------|
B|---6~~6--5--6--5-----------5-----5--------------|---6~~6--5--6--5--5-----------------------------|
G|---7~~7-----------------------------------------|------------------------------------------------|
D|------------------------------------------------|------------------------------------------------|
A|------------------------------------------------|------------------------------------------------|
E|------------------------------------------------|------------------------------------------------|

 |1  e  +  a  2  e  +  a  3  e  +  a  4  e  +  a  |1  e  +  a  2  e  +  a  3  e  +  a  4  e  +  a  |

e|---5~~5--------------5--------------------------|------5b-------7b-------10b------12b------0-----|
B|---6~~6--5--6--5-----------5-----5b-------------|------------------------------------------------|
G|---7~~7-----------------------------------------|------------------------------------------------|
D|------------------------------------------------|------------------------------------------------|
A|------------------------------------------------|------------------------------------------------|
E|------------------------------------------------|------------------------------------------------|

e|------------------------------------------------|------------------------------------------------|
B|12b~~~~~~~~~~~~~~~~~~~~~~~~~~~~~~~~~~~~~~~~~~~~~|12b~~~~~~~~~~~~~~~~~~~~~~~~~~~~~~~~~~~~~~~~~~~~~|
G|------------------------------------------------|------------------------------------------------|
D|------------------------------------------------|------------------------------------------------|
A|------------------------------------------------|------------------------------------------------|
E|------------------------------------------------|------------------------------------------------|

 |1  e  +  a  2  e  +  a  3  e  +  a  4  e  +  a  |1  e  +  a  2  e  +  a  3  e  +  a  4  e  +  a  |

e|------------------------------------------------|------------------------------------------------|
B|13~~~~~~~~~~14~~~~~~~~~~15~~~~~~~~~~~~~~~~~~~~~~|16~~~~~~~~~~17~~~~~~~~~~~~~~~~~~~~~~~~~~~~~~~~~~|
G|------------------------------------------------|------------------------------------------------|
D|------------------------------------------------|------------------------------------------------|
A|------------------------------------------------|------------------------------------------------|
E|------------------------------------------------|------------------------------------------------|

The following four lines are played twice, as indicated by the repeat signs.

e||------------------------------------------------|------------------------------------------------|
B||15-15-15-13-13-13-------------------------------|------------------------------------------------|
G||*-----------------14-14-14----------------------|------------------------------------------------|
D||*--------------------------15-15-15-15-15-11-11-|12-12-12-12-12-12-12-12-12-12-12-12-12-12-12-12-|
A||------------------------------------------------|------------------------------------------------|
E||------------------------------------------------|------------------------------------------------|

 ||1  e  +  a  2  e  +  a  3  e  +  a  4  e  +  a  |1  e  +  a  2  e  +  a  3  e  +  a  4  e  +  a  |

e|------------------------------------------------|------------------------------------------------|
B|------------------------------------------------|------------------------------------------------|
G|------------------------------------------------|------------------------------------------------|
D|12-12-12-12-12-12-12-12-12-12-12-12-12-12-12-12-|12-12-12-12-12-12-12-12-12-12-12-12-12-12-12-12-|
A|------------------------------------------------|------------------------------------------------|
E|------------------------------------------------|------------------------------------------------|

e|13-13-13----------------------------------------|------------------------------------------------|
B|---------15-15-15-13-13-13----------------------|------------------------------------------------|
G|---------------------------14-14-14-14-14-------|------------------------------------------------|
D|------------------------------------------14-14-|15-15-15-15-15-15-11-11-11-11-11-11-11-11-11-11-|
A|------------------------------------------------|------------------------------------------------|
E|------------------------------------------------|------------------------------------------------|

 |1  e  +  a  2  e  +  a  3  e  +  a  4  e  +  a  |1  e  +  a  2  e  +  a  3  e  +  a  4  e  +  a  ||

e|------------------------------------------------|------------------------------------------------||
B|------------------------------------------------|------------------------------------------------||
G|------------------------------------------------|-----------------------------------------------*||
D|11-11-11-11-11-11-11-11-11-11-11-11-11-11-11-11-|11-11-11-11-11-11-11-11-11-11-11-11-11-11-11-11*||
A|------------------------------------------------|------------------------------------------------||
E|------------------------------------------------|------------------------------------------------||

e|------------------------------------------------|------------------------------------------------|
B|15-15-15-13-13-13-------------------------------|------------------------------------------------|
G|------------------14-14-14----------------------|------------------------------------------------|
D|---------------------------15-15-15-15-15-11-11-|12-12-12-12-12-12-12-12-12-12-12-12-12-12-12-12-|
A|------------------------------------------------|------------------------------------------------|
E|------------------------------------------------|------------------------------------------------|

 |1  e  +  a  2  e  +  a  3  e  +  a  4  e  +  a  |1  e  +  a  2  e  +  a  3  e  +  a  4  e  +  a  |

e|------------------------------------------------|------------------------------------------------|
B|------------------------------------------------|------------------------------------------------|
G|10-10-------------------------------------------|10-10-------------------------------------------|
D|12-12----12-12-12-12-12-12-12-12-12-12-12-12-12-|12-12----12-12-12-12-12-12-12-12-12-12-12-12-12-|
A|------------------------------------------------|------------------------------------------------|
E|------------------------------------------------|------------------------------------------------|

e|------------------------------------------------|------------------------------------------------|
B|------------------------------------------------|------------------------------------------------|
G|10-10----10-10----10-10----10-10----10-10-10----|13-13----13-13----13-13----13-13----13-13-13-13-|
D|12-12-12-12-12-12-12-12-12-12-12-12-12-12-12-12-|12-12-12-12-12-12-12-12-12-12-12-12-12-12-12-12-|
A|------------------------------------------------|------------------------------------------------|
E|------------------------------------------------|------------------------------------------------|

 |1  e  +  a  2  e  +  a  3  e  +  a  4  e  +  a  |1  e  +  a  2  e  +  a  3  e  +  a  4  e  +  a  |

e|------------------------------------------------|------------------------------------------------|
B|------------------------------------------------|------------------------------------------------|
G|12-12----12-12----12-12----12-12----12-12----10-|10-10----10-10----10-10----10-10-10-10-10-10-10-|
D|12-12-12-12-12-12-12-12-12-12-12-12-12-12-12-12-|12-12-12-12-12-12-12-12-12-12-12-12-12-12-12-12-|
A|------------------------------------------------|------------------------------------------------|
E|------------------------------------------------|------------------------------------------------|
Suggest correction
Creating personal tab
Creating personal tab
You can edit any tab online and save it as your Personal.

You can edit, replace or remove any tab part or add personal notes – all changes will be seen only by you.

Personal tabs can be accessed anytime from any device, even offline.
Learn more »
comments
print report bad tab
6 comments total. Showing first comments.
0 reply
BUDDA 70 Jan 30, 2006 08:35 PM

hmmm, thats unbelieveable, nice work

0 reply
nugiboy 192 Feb 04, 2008 08:52 AM

Nice work man. Whats robotalk though? Im guessing its the thing that gives that amazing effect on the psychopath solo, but what exactly does it do?

0 reply
elusivEuphoria 10 Apr 06, 2009 07:16 AM

Robotalk demo
http://www.youtube.com/watch?v=2PqNXg35k54

The guy is kinda goofy if you ask me but he gives a good run down of what the robotalk is. Basically just an envelope filter/random arpeggiator that Xotic made but to my knowledge... doesnt make anymore. NERTS!

guest
You may want to rate the tab now too:
select rating
Wanna post a correction for this tab? Suggest correction