Oops, an error
Loading. Please wait.

Televators Bass Tab

version 1
version 1

Whole song

Interactive

1,472 views 1 this week
1 commentread comment
1 2 3 4 5
please rate
add to favorites
launch autoscroll
font size
0
reset
guitar tuner
Tab Pro tools
  • play this tab
  • loop segment
  • change instrument
  • show fretboard
  • metronome
Autoscroll
slow
fast
+/-
esc
set tempo
stop
Contributor
Difficulty
novice
-------------------------------------------------------------------------------
			     Televators - The Mars Volta
-------------------------------------------------------------------------------

This Isn't my tab but I submitted it because there wasn't one. I also submitted 
and Roulette Dares.

the mars volta
televators
tabbed by rob saunders

this is a wierd song, i'm not sure if the bass
actually plays in half of the riffs.

start at around (0:50)
g--4~~~~~~~~~~~~~~~~-------------------|
d---------------------5~~~~~~~~~~~~~~--|
a--------------------------------------|
e--------------------------------------|

chorus thing
g--------------------------------------|
d-(2)~~~~~~~~~~~~~~~~(5)~~~~~~~~~~~~~~~|
a--------------------------------------|  x3
e--0~~~~~~~~~~~~~~~~~~3~~~~~~~~~~~~~~~~|
(the notes in brackets are optional, it doesn't
really matter if you play them or not)
then
g-------------------4----------0-------|
d--2--------2--------------------------|
a-------------------2----------2-------|
e--0--------0--------------------------|

play the verse thing again for a while,then at (3:11)
g-4---04---0764---04-4076------------------------|
d------------------------5-----50705--------5070-|
a------------------------------------------------|
e------------------------------------------------|

g-4---04---0764---04--076------------------------|
d------------------------5---05--0705-----5-7-5--|
a------------------------------------------------|
e------------------------------------------------|

chorus
bridge (3:58)(i'm not sure on this)  x4
g-------------------------------------------|
d-----------------------------------7-----6-|
a---------------------7----7----5-55--4-44--|
e-7---07--0705---05--5----------------------|

chorus
end
g--------|
d--------|
a--------|
e--5/7---|
comments
We did not receive enough feedback on this tab! Please rate:
print report bad tab
1 2 3 4 5
1 comment total.
0 reply
housedimir66 wrote on March 6 2009, 08:10 am

no offense, but this sucks, the other tabs is better

I want to post or [tab]
guest
You may want to rate the tab now too:
select rating
Please do not post tabs as comments. Select "correction" instead!