Oops, an error
Loading. Please wait.

Televators Bass Tab

version 2
version 2

Whole song

Interactive

2,405 views 1 this week
no commentswrite comment
1 2 3 4 5
accurate
x 2
add to favorites
launch autoscroll
font size
0
reset
guitar tuner
Tab Pro tools
  • play this tab
  • loop segment
  • change instrument
  • show fretboard
  • metronome
Autoscroll
slow
fast
+/-
esc
set tempo
stop
Contributor
Difficulty
intermediate
Band: The Mars Volta
Song: Televators
Album: De-Loused In The Comatorium
Tabbed by: choke383
Normal Tuning: GDAE


2:00
G|---------------------------0---------------0---------------------|
D|2--2-0-----------2--2-0--------0-2--2-0------2-\\---2------------|
A|------2-----(0)2-------2-----2---------2---------------2--0-//2--|
E|-------3--3-------------3---------------3--------3---------------|


3:11
G|4--4-4---6-4---4-7\6----------------4---4---7\64---4---7\6--------------------|
D|----4---4-4-----4---5---5-7-5---5-7----4---4------4---4---5---5---7-5--5------|
A|-------------------------5-5-----5-5-------------------------5---5-5-----5----|
E|---------------------------------------------------------------------------5--|


3:35
G|-------------------------------------------------------------------|
D|2--2-0-----------2--2------------2--2-0---------------2------------|
A|------2------0-2-------------0-2-------2-----0-2---------2--2-/3\--|
E|-------3--3-------------3--3------------3--3-------3---------------|


4:00 this is the tricky part, its hard to hear, and its pretty random.
G|--4-------5-------3---------------------3-----------|
D|--------5---------------2-3---3-----1----11--3------|
A|3-----3--3----1------1----------1--------------1-3--|
E|----------------------------------------------------|

G|--4-7-----5-----------------------------3-----------|
D|--------5---------------2-3---3----31----11--3------|
A|3-----3-------1------1----------1-1------------1-3--|
E|----------------------------------------------------|

G|----7---0-3\------3---------------------3-----------|
D|0--5-----0---1----------2-3---3----31----11--3------|
A|--3------------------1----------1-1------------1-3--|
E|----------------------------------------------------|

G|-------5\------3---------------------3-----------|
D|----5----------------2-3---3-----1----11--3------|
A|--3---3-----1-----1----------1--------------1-3--|
E|-------------------------------------------------|

I know It's hard to follow so you should probably place in the notes y0u hear.


4:46
G|-----------------------------2-4------------------------------------|
D|2--2-0-----------2--2-0----------2--2-0---------------2-------------|
A|------2------0-2-------2---------------2-------0-2-------3--3b-p0---|
E|-------3--3-------------3--3------------3--3-3-----3----------------|



Any comments, questions or jokes send to style444@hotmail.com
comments
We did not receive enough feedback on this tab! Please rate:
print report bad tab
1 2 3 4 5
I want to post or [tab]
guest
You may want to rate the tab now too:
select rating
Please do not post tabs as comments. Select "correction" instead!