Oops, an error
Loading. Please wait.

Televators tab

version 6
version 6

Interactive

3,522 views 1 this week
no commentswrite comment
1 2 3 4 5
3 more votes to show rating
add to favorites
×
Save as Personal and add changes to this tab that will be seen only by you. Learn more ›
×
You can save this tab as Personal to edit and correct it or add notes. All changes will be seen only by you. Learn more »
launch autoscroll
font size
0
reset
how to read this tab
guitar tuner
edit
Autoscroll
slow
fast
+/-
esc
set tempo
stop
Author
Tabbers playing skills
intermediate ++
  Gtr I
|------------|------------|------------|------------|
|------------|------------|------------|------------|
|------------|------------|------------|------------|
|-4----------|-4----------|-4----------|-4----------|
|------5---5-|------5---5-|------5---5-|------5---0-|
|-7--7---7---|----7---7---|----7---7---|----7---7---|


  G
|------------|------------|------------|-------------|
|------------|------------|------------|-------------|
|-4----------|-4----------|-4----------|-4-----------|
|-5--5---5---|-5--5---5---|-5--5---5---|-5--5---5----|
|------5---5-|------5---5-|------5---5-|------5---0--|
|-3----------|------------|------------|-------------|


    Bm
   3/4
    Gtr I
||-------------|--------------|--------------|--------------|
||o------------|--------------|--------------|--------------|
||-------------|--------------|--------------|--------------|
||--4----------|--4-----------|--4-----------|--4-----------|
||o------5---5-|--------5---5-|--------5---5-|--------5---0-|
||--7--7---7---|------7---7---|------7---7---|------7---7---|
|
|   Gtr II
|   >
||-------------|--------------|--------------|--------------|
||o------------|--------------|--------------|--------------|
||-------------|--------------|--------------|--------------|
||-------------|--------------|--------------|--------------|
||o-2----------|-(2)----------|-(2)----------|-(2)----------|
||-------------|--------------|--------------|--------------|


  G
|------------|--------------|--------------|---------------||
|------------|--------------|--------------|--------------o||
|-4----------|--4-----------|--4-----------|--4------------||
|-5--5---5---|--5---5---5---|--5---5---5---|--5---5---5----||
|------5---5-|--------5---5-|--------5---5-|--------5---0-o||
|-3----------|--------------|--------------|---------------||
|
| >
|------------|--------------|--------------|---------------||
|------------|--------------|--------------|--------------o||
|------------|--------------|--------------|---------------||
|------------|--------------|--------------|---------------||
|------------|--------------|--------------|--------------o||
|-3----------|-(3)----------|-(3)----------|-(3)-----------||


   1st Verse
    Bm
   3/4
    Gtr I
||-------------|--------------|--------------|--------------|
||o------------|--------------|--------------|--------------|
||-------------|--------------|--------------|--------------|
||--4----------|--4-----------|--4-----------|--4-----------|
||o------5---5-|--------5---5-|--------5---5-|--------5---0-|
||--7--7---7---|------7---7---|------7---7---|------7---7---|
|
|   Gtr II
|   >
||-------------|--------------|--------------|--------------|
||o------------|--------------|--------------|--------------|
||-------------|--------------|--------------|--------------|
||-------------|--------------|--------------|--------------|
||o-2----------|-(2)----------|-(2)----------|-(2)----------|
||-------------|--------------|--------------|--------------|


  G
                                                           4x
|------------|--------------|--------------|---------------||
|------------|--------------|--------------|--------------o||
|-4----------|--4-----------|--4-----------|--4------------||
|-5--5---5---|--5---5---5---|--5---5---5---|--5---5---5----||
|------5---5-|--------5---5-|--------5---5-|--------5---0-o||
|-3----------|--------------|--------------|---------------||
|
| >
|                                                          4x
|------------|--------------|--------------|---------------||
|------------|--------------|--------------|--------------o||
|------------|--------------|--------------|---------------||
|------------|--------------|--------------|---------------||
|------------|--------------|--------------|--------------o||
|-3----------|-(3)----------|-(3)----------|-(3)-----------||


   1st Chorus
    Em/B                                    G              Gm
   3/4
    Gtr I
                                                                         3x
||---------------|------------------------|--------------|---------------||
||o--------------|------------------------|--------------|--------------o||
||---------------|------------------------|---4----------|--3------------||
||----5----------|---5--------------------|---5--5---5---|--5---5---5----||
||o---7----7---7-|---7-----7------7-------|--------5---5-|--------5---0-o||
||-------7---7---|-------7-----7----------|---3----------|---------------||
|
|   Gtr II
|     >                                       >
|                                                                        3x
||---------------|------------------------|--------------|---------------||
||o--------------|------------------------|--------------|--------------o||
||---------------|------------------------|--------------|---------------||
||---------------|------------------------|--------------|---------------||
||o--------------|------------------------|--------------|--------------o||
||----0----------|--(0)-------------------|---3----------|-(3)-----------||
|
|   Gtrs II, III
|     ~~~~~~~~~~~~~~~~~~~~~~~~~~~~            ~~~~~~~~~~~~~~~~~
|                                                                        3x
||---15----------|-(15)------(15)---------|--17----------|-18------------||
||o--------------|------------------------|--------------|--------------o||
||---------------|------------------------|--------------|---------------||
||--/14----------|-(14)------(14)---(14)\-|--------------|---------------||
||o--------------|------------------------|-/17----------|-16-----------o||
||---------------|------------------------|--------------|---------------||


  E5          E5        Bm        Bm+5/G
 3/4
  Gtrs II, III
|-/15\------|---------|---------|--------|
|-----------|---------|---------|--------|
|-----------|---------|---------|--------|
|-/14\------|---------|---------|--------|
|-----------|---------|---------|--------|
|-----------|---------|---------|--------|
|
| Gtr I
|-----------|---------|-^7------|--------|
|-----------|---------|-^7------|-^-8----|
|---9-------|-^9------|-^7------|-^-7----|
|---9-------|-^9------|-^9------|-^-9----|
|---7-------|-^7------|---------|-^10----|
|-----------|---------|---------|--------|


   Pre-Verse
    Bm
   3/4
    Gtr I
||--------------|--------------------------|--------------|----------------|
||o-------------|--------------------------|--------------|----------------|
||--------------|--------------------------|--------------|----------------|
||---4----------|---4----------------------|--4-----------|---4------------|
||o-------5---5-|----------5------------5--|--------5---5-|---------5----0-|
||---7--7---7---|-------7----------7-------|------7---7---|-------7----7---|
|
|   Gtr II
|    >
||--------------|--------------------------|--------------|----------------|
||o-------------|--------------------------|--------------|----------------|
||--------------|--------------------------|--------------|----------------|
||--------------|--------------------------|--------------|----------------|
||o--2----------|--(2)---------------------|-(2)----------|--(2)-----------|
||--------------|--------------------------|--------------|----------------|
|
|   Gtr III
|    ~~~~~~~~~~~~~~~~~~                       ~~~~~~~~~~~~~~~~~~~
||--------------|--------------------------|--------------|----------------|
||o-14----------|-(14)----12b14==(12)r(12)-|--------------|-----------12---|
||--------------|--------------------------|-14-----------|-(14)-----------|
||--------------|--------------------------|--------------|----------------|
||o-------------|--------------------------|--------------|----------------|
||--------------|--------------------------|--------------|----------------|


  G
|-------------|--------------------------|--------------|-----------------||
|-------------|--------------------------|--------------|----------------o||
|--4----------|---4----------------------|--4-----------|---4-------------||
|--5--5---5---|---5---5----------5-------|--5---5---5---|---5---5----5----||
|-------5---5-|----------5------------5--|--------5---5-|---------5----0-o||
|--3----------|--------------------------|--------------|-----------------||
|
|  >
|-------------|--------------------------|--------------|-----------------||
|-------------|--------------------------|--------------|----------------o||
|-------------|--------------------------|--------------|-----------------||
|-------------|--------------------------|--------------|-----------------||
|-------------|--------------------------|--------------|----------------o||
|--3----------|--(3)---------------------|-(3)----------|--(3)------------||
|
|  ~~~~~~~~~~~~~~~~~~                       ~~~~~~~~~~~~~~~~~~~
|-------------|--------------------------|--------------|-----------------||
|-14----------|-(14)----12b14==(12)r(12)-|--------------|-----------12---o||
|-------------|--------------------------|-14-----------|-(14)------------||
|-------------|--------------------------|--------------|-----------------||
|-------------|--------------------------|--------------|----------------o||
|-------------|--------------------------|--------------|-----------------||


 2nd Verse
  Bm
 3/4
  Gtr III
   ~~
|-------------|----------------|--------------|--------------|
|-14----------|-(14)\----------|--------------|--------------|
|-------------|----------------|--------------|--------------|
|-------------|----------------|--------------|--------------|
|-------------|----------------|--------------|--------------|
|-------------|----------------|--------------|--------------|
|
| Gtr I
|-------------|----------------|--------------|--------------|
|-------------|----------------|--------------|--------------|
|-------------|----------------|--------------|--------------|
|--4----------|---4------------|--4-----------|--4-----------|
|-------5---5-|----------5---5-|--------5---5-|--------5---0-|
|--7--7---7---|--------7---7---|------7---7---|------7---7---|
|
| Gtr II
|  >
|-------------|----------------|--------------|--------------|
|-------------|----------------|--------------|--------------|
|-------------|----------------|--------------|--------------|
|-------------|----------------|--------------|--------------|
|--2----------|--(2)-----------|-(2)----------|-(2)----------|
|-------------|----------------|--------------|--------------|


  G
|------------|--------------|--------------|---------------|
|------------|--------------|--------------|---------------|
|------------|--------------|--------------|---------------|
|------------|--------------|--------------|---------------|
|------------|--------------|--------------|---------------|
|------------|--------------|--------------|---------------|
|
|------------|--------------|--------------|---------------|
|------------|--------------|--------------|---------------|
|-4----------|--4-----------|--4-----------|--4------------|
|-5--5---5---|--5---5---5---|--5---5---5---|--5---5---5----|
|------5---5-|--------5---5-|--------5---5-|--------5---0--|
|-3----------|--------------|--------------|---------------|
|
| >
|------------|--------------|--------------|---------------|
|------------|--------------|--------------|---------------|
|------------|--------------|--------------|---------------|
|------------|--------------|--------------|---------------|
|------------|--------------|--------------|---------------|
|-3----------|-(3)----------|-(3)----------|-(3)-----------|


    Bm
   3/4
    Gtr I
||-------------|--------------|--------------|--------------|
||o------------|--------------|--------------|--------------|
||-------------|--------------|--------------|--------------|
||--4----------|--4-----------|--4-----------|--4-----------|
||o------5---5-|--------5---5-|--------5---5-|--------5---0-|
||--7--7---7---|------7---7---|------7---7---|------7---7---|
|
|   Gtr II
|   >
||-------------|--------------|--------------|--------------|
||o------------|--------------|--------------|--------------|
||-------------|--------------|--------------|--------------|
||-------------|--------------|--------------|--------------|
||o-2----------|-(2)----------|-(2)----------|-(2)----------|
||-------------|--------------|--------------|--------------|


  G
|------------|--------------|--------------|---------------||
|------------|--------------|--------------|--------------o||
|-4----------|--4-----------|--4-----------|--4------------||
|-5--5---5---|--5---5---5---|--5---5---5---|--5---5---5----||
|------5---5-|--------5---5-|--------5---5-|--------5---0-o||
|-3----------|--------------|--------------|---------------||
|
| >
|------------|--------------|--------------|---------------||
|------------|--------------|--------------|--------------o||
|------------|--------------|--------------|---------------||
|------------|--------------|--------------|---------------||
|------------|--------------|--------------|--------------o||
|-3----------|-(3)----------|-(3)----------|-(3)-----------||


  Bm
 3/4
  Gtr I
|------------|--------------|--------------|--------------|
|------------|--------------|--------------|--------------|
|------------|--------------|--------------|--------------|
|-4----------|--4-----------|--4-----------|--4-----------|
|------5---5-|--------5---5-|--------5---5-|--------5---0-|
|-7--7---7---|------7---7---|------7---7---|------7---7---|
|
| Gtr II
| >
|------------|--------------|--------------|--------------|
|------------|--------------|--------------|--------------|
|------------|--------------|--------------|--------------|
|------------|--------------|--------------|--------------|
|-2----------|-(2)----------|-(2)----------|-(2)----------|
|------------|--------------|--------------|--------------|


  G
|------------|--------------|--------------|--------|
|------------|--------------|--------------|--------|
|-4----------|--4-----------|--4-----------|--4-----|
|-5--5---5---|--5---5---5---|--5---5---5---|--5-----|
|------5---5-|--------5---5-|--------5---5-|--------|
|-3----------|--------------|--------------|--------|
|
| >
|------------|--------------|--------------|--------|
|------------|--------------|--------------|--------|
|------------|--------------|--------------|--------|
|------------|--------------|--------------|--------|
|------------|--------------|--------------|--------|
|-3----------|-(3)----------|-(3)----------|-(3)----|


   2nd Chorus
    Em/B                                    G              Gm
   3/4
    Gtr I
                                                                         3x
||---------------|------------------------|--------------|---------------||
||o--------------|------------------------|--------------|--------------o||
||---------------|------------------------|---4----------|--3------------||
||----5----------|---5--------------------|---5--5---5---|--5---5---5----||
||o---7----7---7-|---7-----7------7-------|--------5---5-|--------5---0-o||
||-------7---7---|-------7-----7----------|---3----------|---------------||
|
|   Gtr II
|     >                                       >
|                                                                        3x
||---------------|------------------------|--------------|---------------||
||o--------------|------------------------|--------------|--------------o||
||---------------|------------------------|--------------|---------------||
||---------------|------------------------|--------------|---------------||
||o--------------|------------------------|--------------|--------------o||
||----0----------|--(0)-------------------|---3----------|-(3)-----------||
|
|   Gtrs II, III
|     ~~~~~~~~~~~~~~~~~~~~~~~~~~~~            ~~~~~~~~~~~~~~~~~
|                                                                        3x
||---15----------|-(15)------(15)---------|--17----------|-18------------||
||o--------------|------------------------|--------------|--------------o||
||---------------|------------------------|--------------|---------------||
||--/14----------|-(14)------(14)---(14)\-|--------------|---------------||
||o--------------|------------------------|-/17----------|-16-----------o||
||---------------|------------------------|--------------|---------------||


  E5                    Bm        Bm+5/G
 3/4
  Gtrs II, III
|-/15\------|---------|---------|--------|
|-----------|---------|---------|--------|
|-----------|---------|---------|--------|
|-/14\------|---------|---------|--------|
|-----------|---------|---------|--------|
|-----------|---------|---------|--------|
|
| Gtr I
|-----------|---------|-^7------|--------|
|-----------|---------|-^7------|-^-8----|
|---9-------|-^9------|-^7------|-^-7----|
|---9-------|-^9------|-^9------|-^-9----|
|---7-------|-^7------|---------|-^10----|
|-----------|---------|---------|--------|


 Bridge
  Bm                   D         A
 3/4
  Gtr I
|------------|-----------------|--------------|---------------|
|-3----------|-3--(3)/-7-------|--2-----------|--2-----2------|
|------------|-----------------|--------------|---------------|
|------0---0-|-----------------|--------0---0-|-------(0)---0-|
|-2--2---2---|-2--(2)/-5-5p(0)-|--0--0----0---|--0--0-----0---|
|------------|-----------------|--------------|---------------|
|
|                                Gtr IV
|                                 ~~~~~~~~~~~~~~~~~~~~~~~~
|------------|-----------------|--------------|---------------|
|------------|-----------------|-14-----------|-14------------|
|------------|-----------------|-------11-----|-------11------|
|------------|-----------------|--------------|---------------|
|------------|-----------------|--------------|---------------|
|------------|-----------------|--------------|---------------|


  Em                      G           D              C#m/A
 3/4
  Gtr I
|---------------|-------------------|--------------|--------------|
|---8-----------|-8--(8)/-12--------|--7-----------|--5-----------|
|---------------|-------------------|--------------|--------------|
|---------0---0-|---------------(0)-|--------------|--------------|
|---7---7---7---|-7--(7)/-10-10-----|--5-----5---5-|--4-----4---4-|
|---------------|-------------------|-----5----5---|-----5----5---|
|
| Gtr IV
|   >
|                                      ~~~~~~~~~~~~~~~~~~~~~~~
|---------------|-------------------|--------------|--------------|
|---------------|-------------------|-14-----------|-14-----------|
|-(11)----------|-------------------|-------11-----|-------11-----|
|---------------|-------------------|--------------|--------------|
|---------------|-------------------|--------------|--------------|
|---------------|-------------------|--------------|--------------|


  Bm                      D         A
 3/4
  Gtr I
|---------------|-----------------|--------------|---------------|
|---3-----------|-3--(3)/-7-------|--2-----------|--2-----2------|
|---------------|-----------------|--------------|---------------|
|---------0---0-|-----------------|--------0---0-|-------(0)---0-|
|---2---2---2---|-2--(2)/-5-5p(0)-|--0--0----0---|--0--0-----0---|
|---------------|-----------------|--------------|---------------|
|
| Gtr IV
|   >
|                                    ~~~~~~~~~~~~~~~~~~~~~~~~
|---------------|-----------------|--------------|---------------|
|---------------|-----------------|-14-----------|-14------------|
|-(11)----------|-----------------|-------11-----|-------11------|
|---------------|-----------------|--------------|---------------|
|---------------|-----------------|--------------|---------------|
|---------------|-----------------|--------------|---------------|


  Em                      G           D              C#m/A
 3/4
  Gtr I
|---------------|-------------------|--------------|--------------|
|---8-----------|-8--(8)/-12--------|--7-----------|--5-----------|
|---------------|-------------------|--------------|--------------|
|---------0---0-|---------------(0)-|--------------|--------------|
|---7---7---7---|-7--(7)/-10-10-----|--5-----5---5-|--4-----4---4-|
|---------------|-------------------|-----5----5---|-----5----5---|
|
| Gtr IV
|   >
|                                      ~~~~~~~~~~~~~~~~~~~~~~~
|---------------|-------------------|--------------|--------------|
|---------------|-------------------|-14-----------|-14-----------|
|-(11)----------|-------------------|-------11-----|-------11-----|
|---------------|-------------------|--------------|--------------|
|---------------|-------------------|--------------|--------------|
|---------------|-------------------|--------------|--------------|


  Bm                      D         A
 3/4
  Gtr I
|---------------|-----------------|--------------|---------------|
|---3-----------|-3--(3)/-7-------|--2-----------|--2-----2------|
|---------------|-----------------|--------------|---------------|
|---------0---0-|-----------------|--------0---0-|-------(0)---0-|
|---2---2---2---|-2--(2)/-5-5p(0)-|--0--0----0---|--0--0-----0---|
|---------------|-----------------|--------------|---------------|
|
| Gtr IV
|   >
|                                    ~~~~~~~~~~~~~~~~~~~~~~~~
|---------------|-----------------|--------------|---------------|
|---------------|-----------------|-14-----------|-14------------|
|-(11)----------|-----------------|-------11-----|-------11------|
|---------------|-----------------|--------------|---------------|
|---------------|-----------------|--------------|---------------|
|---------------|-----------------|--------------|---------------|


  Em                      G           D              C#m/A
 3/4
  Gtr I
|---------------|-------------------|--------------|--------------|
|---8-----------|-8--(8)/-12--------|--7-----------|--5-----------|
|---------------|-------------------|--------------|--------------|
|---------0---0-|---------------(0)-|--------------|--------------|
|---7---7---7---|-7--(7)/-10-10-----|--5-----5---5-|--4-----4---4-|
|---------------|-------------------|-----5----5---|-----5----5---|
|
| Gtr IV
|   >
|                                      ~~~~~~~~~~~~~~~~~~~~~~~
|---------------|-------------------|--------------|--------------|
|---------------|-------------------|-14-----------|-14-----------|
|-(11)----------|-------------------|-------11-----|-------11-----|
|---------------|-------------------|--------------|--------------|
|---------------|-------------------|--------------|--------------|
|---------------|-------------------|--------------|--------------|


  Bm                      D         A
 3/4
  Gtr I
|---------------|-----------------|--------------|---------------|
|---3-----------|-3--(3)/-7-------|--2-----------|--2-----2------|
|---------------|-----------------|--------------|---------------|
|---------0---0-|-----------------|--------0---0-|-------(0)---0-|
|---2---2---2---|-2--(2)/-5-5p(0)-|--0--0----0---|--0--0-----0---|
|---------------|-----------------|--------------|---------------|
|
| Gtr IV
|   >
|                                    ~~~~~~~~~~~~~~~~~~~~~~~~
|---------------|-----------------|--------------|---------------|
|---------------|-----------------|-14-----------|-14------------|
|-(11)----------|-----------------|-------11-----|-------11------|
|---------------|-----------------|--------------|---------------|
|---------------|-----------------|--------------|---------------|
|---------------|-----------------|--------------|---------------|


  Em                      G           D              C#m/A
 3/4
  Gtr I
|---------------|-------------------|--------------|--------------|
|---8-----------|-8--(8)/-12--------|--7-----------|--5-----------|
|---------------|-------------------|--------------|--------------|
|---------0---0-|---------------(0)-|--------------|--------------|
|---7---7---7---|-7--(7)/-10-10-----|--5-----5---5-|--4-----4---4-|
|---------------|-------------------|-----5----5---|-----5----5---|
|
| Gtr IV
|   >
|                                      ~~~~~~~~~~~~~~~~~~~~~~~
|---------------|-------------------|--------------|--------------|
|---------------|-------------------|-14-----------|-14-----------|
|-(11)----------|-------------------|-------11-----|-------11-----|
|---------------|-------------------|--------------|--------------|
|---------------|-------------------|--------------|--------------|
|---------------|-------------------|--------------|--------------|


   3rd Chorus
    Em                                      G              Gm
   3/4
    Gtr I
                                                                         3x
||---------------|------------------------|--------------|---------------||
||o--------------|------------------------|--------------|--------------o||
||---------------|------------------------|---4----------|--3------------||
||----5----------|---5--------------------|---5--5---5---|--5---5---5----||
||o---7----7---7-|---7-----7------7-------|--------5---5-|--------5---0-o||
||-------7---7---|-------7-----7----------|---3----------|---------------||
|
|   Gtr II
|     >                                       >
|                                                                        3x
||---------------|------------------------|--------------|---------------||
||o--------------|------------------------|--------------|--------------o||
||---------------|------------------------|--------------|---------------||
||---------------|------------------------|--------------|---------------||
||o--------------|------------------------|--------------|--------------o||
||----0----------|--(0)-------------------|---3----------|-(3)-----------||
|
|   Gtrs II, III
|     ~~~~~~~~~~~~~~~~~~~~~~~~~~~~            ~~~~~~~~~~~~~~~~~
|                                                                        3x
||---15----------|-(15)------(15)---------|--17----------|-18------------||
||o--------------|------------------------|--------------|--------------o||
||---------------|------------------------|--------------|---------------||
||--/14----------|-(14)------(14)---(14)\-|--------------|---------------||
||o--------------|------------------------|-/17----------|-16-----------o||
||---------------|------------------------|--------------|---------------||


  E5                    Bm        Bm+5/G
 3/4
  Gtrs II, III
|-/15\------|---------|---------|--------|
|-----------|---------|---------|--------|
|-----------|---------|---------|--------|
|-/14\------|---------|---------|--------|
|-----------|---------|---------|--------|
|-----------|---------|---------|--------|
|
| Gtr I
|-----------|---------|-^7------|--------|
|-----------|---------|-^7------|-^-8----|
|---9-------|-^9------|-^7------|-^-7----|
|---9-------|-^9------|-^9------|-^-9----|
|---7-------|-^7------|---------|-^10----|
|-----------|---------|---------|--------|


             Outro
 3/4
  Gtr I
|-----------|-----*|
|--(8)------|-----*|
|--(7)------|-----*|
|--(9)------|-----*|
|-(10)------|-----*|
|-----------|-----*|

            
            
Suggest correction
Creating personal tab
Creating personal tab
You can edit any tab online and save it as your Personal.

You can edit, replace or remove any tab part or add personal notes – all changes will be seen only by you.

Personal tabs can be accessed anytime from any device, even offline.
Learn more »
Give kudos to tab author, rate the tab!
1 2 3 4 5
comments
print report bad tab
guest
You may want to rate the tab now too:
select rating
Wanna post a correction for this tab? Suggest correction