Oops, an error
Loading. Please wait.

This Apparatus Must Be Unearthed Bass Tab

version 1
version 1

Whole song

Interactive

1,548 views 1 this week
no commentswrite comment
1 2 3 4 5
please rate
add to favorites
launch autoscroll
font size
0
reset
guitar tuner
Tab Pro tools
  • play this tab
  • loop segment
  • change instrument
  • show fretboard
  • metronome
×
Best way to learn
"This Apparatus Must Be Unearthed"
Autoscroll
slow
fast
+/-
esc
set tempo
stop
Contributor
Difficulty
Tabbed By : Xcrimson _ghostX
e-mail: skawful27@aim.com

Tuning: standard

not a very hard song. real fun to play though. there may be some alternations or filters 
the chorus. if you hear them, go ahead and play them cuz this tab isnt perfect.

intro
G|------------------------------------4-4-4-4-4-4-4-4-13-16~~--16~~--|
D|----------------------------------5--------------------------------|
A|-----------------5-------------------------------------------------| x1
E|--7-7-7-7-7-7-7-7-7-7-7-7-7-7-7-7----------------------------------|

chorus
G|-----------------------------------------------|
D|-----------------------------------4444444444--|
A|-------------5555555775-4444444444-------------| x4
E|--7777777777-----------------------------------|

verse
G|-----------------------------------|
D|-----------------------------------|
A|----------55-5-55-44-4-44-77-7-77--| x5
E|--77-7-77--------------------------|

chorus x2
verse x4
chorus x4

bridge          x4                  x6
G|----------------------------|--------------------|
D|-------2~-2-0~-04~--44-4----|------2~~-0~~--4~~--|
A|--4~-4-------------4----4~--|--4~~---------------|
E|----------------------------|--------------------|
                                ^^play very softly when the vocals restart

bridge cont'd [heavy part]   x1
G|-----------------------------------------------------------------|
D|----------------------7~-5~-4~-----------------------------------|
A|-----------------55555-------------------------------------------|
E|--77777777777777---------------00000000000000002222222222222222--|

ending chorus x4


| /  slide up
| \  slide down
| h  hammer-on
| p  pull-off
| ~  vibrato
| +  harmonic
| x  Mute note
===============================================================================
comments
We did not receive enough feedback on this tab! Please rate:
print report bad tab
1 2 3 4 5
I want to post or [tab]
guest
You may want to rate the tab now too:
select rating
Please do not post tabs as comments. Select "correction" instead!