Oops, an error
Loading. Please wait.

Vicarious Atonement Bass Tab

version 1
version 1

Whole song

Interactive

1,766 views 3 this week
no commentswrite comment
1 2 3 4 5
please rate
add to favorites
launch autoscroll
font size
0
reset
guitar tuner
Tab Pro tools
  • play this tab
  • loop segment
  • change instrument
  • show fretboard
  • metronome
×
Best way to learn
"Vicarious Atonement"
Autoscroll
slow
fast
+/-
esc
set tempo
stop
Contributor
Difficulty
intermediate
Band: The Mars Volta
Song: Vicarious Atonement
Album: Amputechture

timing is difficult, nothing knowone could play tho

0:20
G:------------------:
D:----------3~------:
A:-3~---------------:  x4
E:------------------:

1:07
G:-------------------:
D:------------------5:
A:-3~----------------:
E:-------------------:

1:18
G:------------------:
D:----------3~-----5:
A:-3~-----6---------:  x11
E:------------------:

3:27
G:------------------:
D:--------2-3~-----5:
A:-3~---------------:
E:------------------:

3:39
G:------------------:
D:----------3~-----5:
A:-3~-----6---------:  x5
E:------------------:

4:38
G:--------------------:
D:----------3~-----3-4:
A:-3~-----6-----------:
E:--------------------:

4:49
G:------------------:
D:-5~-----5-3~---3-4:
A:------------------:  x3
E:------------------:

5:07
G:------------------:
D:-5~-----5-3~------:
A:------------------:
E:------------------:

5:13
G:--------------:
D:--------------:
A:-3~-----------:
E:--------------:

5:24
G:----------------------------------------:
D:---------1---3--5-----------------------:
A:-3----5------------2--------------------:  x9
E:--------------------------3---4---6~\-1-:

7:15
G:-------------------:
D:---------1---3--5--:
A:-3----5------------:
E:-------------------:
comments
We did not receive enough feedback on this tab! Please rate:
print report bad tab
1 2 3 4 5
I want to post or [tab]
guest
You may want to rate the tab now too:
select rating
Please do not post tabs as comments. Select "correction" instead!