Oops, an error
Loading. Please wait.

Viscera Eyes Bass Tab

version 1
version 1

Whole song

Interactive

6,180 views 6 this week
5 commentsread comments
1 2 3 4 5
excellent!
x 3
add to favorites
launch autoscroll
font size
0
reset
guitar tuner
Tab Pro tools
  • play this tab
  • loop segment
  • change instrument
  • show fretboard
  • metronome
×
Best way to learn
"Viscera Eyes"
Autoscroll
slow
fast
+/-
esc
set tempo
stop
Contributor
Difficulty
intermediate
Tabbed By : Xcrimson_ghostX
e-mail: skawful27@aim.com

Tuning: standard

this song sounds way better if you play everything but the solo with a distortion pedal. 
you dont have one, get one. theyre helpful and just sound cool.

Main Riff - 0:40
G|--------------------------|
D|--------------------------|  x14
A|----------111-------------|
E|--3333333-----111-222222--|

Riff 2 - 1:42
G|-------------------------|
D|--5----------------------|
A|----5-----111------------| x4
E|------3~-----111-222222--|

Riff 3 - 1:59      x3                 x1
G|-----------------------|-------------------------------|
D|--5--------------------|--5----------------------------|
A|----5----5x5x3x3-3/12--|----5----5x5x3x3x3-11-11-11-1--|
E|------3~---------------|------3~-----------------------|

Main Riff - 2:18  x14
Riff 2 - 3:20  x4
Riff 3 - 3:38
Main Riff - 3:57  X14
Riff 2 - 4:59  x7

Riff 3 - 5:25      x3                 x1
G|-----------------------|-----------------------------------------------|
D|--5--------------------|--5--------------------------------------------|
A|----5----5x5x3x3-3/12--|----5----5x5x3x3x3-11-11-11-111-111-11-11-1-1--|
E|------3~---------------|------3~---------------------------------------|

Solo - 5:53  This is so much fun to play. It might not be right but its not too hard to 
out.
G|-----------------------------------------|
D|----------5-----3-1~---------5-----3-1~--|
A|--------5-----3------------5-----3-------|  play until end of song
E|--13535-----3--------13535-----3---------|


| /  slide up
| \  slide down
| h  hammer-on
| p  pull-off
| ~  vibrato
| +  harmonic
| x  Mute note
===============================================================================
comments
We did not receive enough feedback on this tab! Please rate:
print report bad tab
1 2 3 4 5
5 comments total. Showing first comments.
0 reply
opsin wrote on March 14 2008, 08:07 pm

For the riff that plays through the last couple of minutes - it's actually -

D -------5-----3-1-------
A -----5-----------------
E -3-6-----3-6-----1-3-5-

0 reply
clashcityrawkr5 wrote on June 13 2008, 11:11 am

close
D----------5------------3----1-----------------
A-------5----------3---------------------------
E--3-6---------1-----------------1---3---0-----

got it from guitar world magazine

0 reply
Third3ye wrote on July 16 2008, 12:00 pm

I really think that last 0 should be on the A string.

I want to post or [tab]
guest
You may want to rate the tab now too:
select rating
Please do not post tabs as comments. Select "correction" instead!