Oops, an error
Loading. Please wait.

Viscera Eyes Bass Tab

version 1
version 1

Solo

Whole song

Interactive

4,111 views 6 this week
no commentswrite comment
1 2 3 4 5
please rate
add to favorites
launch autoscroll
font size
0
reset
guitar tuner
Tab Pro tools
  • play this tab
  • loop segment
  • change instrument
  • show fretboard
  • metronome
×
Best way to learn
"Viscera Eyes"
Autoscroll
slow
fast
+/-
esc
set tempo
stop
Tabbed By : Joe
e-mail: None

Tuning: Standard (EADG)

Viscera Eyes Bass "Solo" (Not really a solo, but a breakdown in the middle of the song.)

Starts at about 5:52 and goes on for the rest of the song
G|----------0---------------------------|
D|-------0------------3--1~-------------|
A|----1------------3-----------------0--|
E|-3------------3--------------1--3-----|

Or it can be played like:
G|--------------------------------------|
D|----------5---------3--1~-------------|
A|-------5---------3--------------------|
E|-3--6---------3--------------1--3--5--|

It sounds pretty accurate to me. Enjoy!

| /  slide up
| \  slide down
| h  hammer-on
| p  pull-off
| ~  vibrato
| +  harmonic
| x  Mute note
comments
We did not receive enough feedback on this tab! Please rate:
print report bad tab
1 2 3 4 5
I want to post or [tab]
guest
You may want to rate the tab now too:
select rating
Please do not post tabs as comments. Select "correction" instead!