Oops, an error
Loading. Please wait.

Wax Simulacra Tab

version 3
version 3

Whole song

Interactive

1,732 views 1 this week
no commentswrite comment
1 2 3 4 5
please rate
add to favorites
launch autoscroll
font size
0
reset
how to read this tab
guitar tuner
Tab Pro tools
  • play this tab
  • loop segment
  • change instrument
  • show fretboard
  • metronome
×
Best way to learn
"Wax Simulacra"
Autoscroll
slow
fast
+/-
esc
set tempo
stop
Contributor
This is my try of Wax Simulcra, I'm not really sure, the tabs presented here are not
correct, but I'm sure mine is neither, but maybe there are some things I've heard out
Big Problem is: two guitars and a lot of distortion : / I also checked some live-vids 
the chorus and the bridge part, but the bridge is really really hard to hear out, and omar
plays it differently live... so get down with some own improvisation

Standard Tuning

Intro

e|------|----------|----------|----------|----------|------------|
B|------|----------|----------|----------|----------|------------|
G|------|-----5-5--|----------|-----5-5--|----------|------------|
D|-7-7--|-2-2-5-5--|-6-6-7-7--|-2-2-5-5--|-6-6-7-7--|-77777------|
A|-7-7--|-2-2-3-3--|-6-6-7-7--|-2-2-3-3--|-6-6-7-7--|-77777------|
E|-5-5--|-0-0------|-4-4-5-5--|-0-0------|-4-4-5-5--|-55555------|

Verse
it differs quite a lot, shown are some examples, notes in brackets () are optionally

e|-0--0--0----------------------|-0--0--0----------------------|
B|----------4h0-0-1---1---1-1-0-|----------4h0-0-1---1---1-1-0-|
G|---------------(2)---2--------|---------------(2)---2--------|
D|---------------(1)----1-------|---------------(1)-1--1-------|
A|------------------------------|------------------------------|
E|------------------------------|------------------------------|

e|-0--0--0----------------|-0--0--0----------------|
B|----------0-----------0-|----------4h0-0-1--1--1-|
G|-------------1-----1----|-----------------2--2---|
D|----------------2-------|------------------1--1--|
A|------------------------|------------------------|
E|------------------------|------------------------|

Interlude to chorus 1
             or
e|------------|--------------|
B|-3-2-1------|--------------|
G|-------2-1--|--7-6-5-------|
D|------------|--------7-6---|
A|------------|--------------|
E|------------|--------------|

Interlude to chorus 2

e|--3h5p3p0------------|
B|----------3h5p3p0-0--|
G|-----------------(4)-|
D|---------------------|
A|---------------------|
E|---------------------|

Chorus

e|---------------------------|-----------------------------|-----...---|
B|---------------------------|-----------------------------|-----...---|
G|---------------------------|-----5-5---------------------|-----...---|
D|-7-7-----------------------|-2-2-5-5---------------------|-6-6-...---|
A|-7-7-----------------------|-2-2-3-3-5-7-8-7-77-7-5-55-5-|-6-6-...---|
E|-5-5-7-8-10-7-77-7--4-44-4-|-0-0-------------------------|-4-4-...---|

Interlude to Verse 2

e|---------------------------|-----------------------------|--------|
B|---------------------------|-----------------------------|--------|
G|---------------------------|-----5-5---------------------|--------|
D|-7-7-----------------------|-2-2-5-5---------------------|-6-6--77|
A|-7-7-----------------------|-2-2-3-3-5-7-8-7-77-7-5-55-5-|-6-6--77|
E|-5-5-7-8-10-7-77-7--4-44-4-|-0-0-------------------------|-4-4--55|

Bridge

Improvise with these Chords and have fun with the 32ths! (>) the notes in brackets ()
optionally, but omar plays them live.
Not sure about the D5, but it's pretty close...

                           >        >        >        >
e|-5-|-0-|---|---|------|----(13)-|---(12)-|---(10)-|----|
B|-5-|-0-|-5-|---|------|---------|--------|--------|----|
G|-5-|-1-|-5-|-7-|-9--7-|--9------|-7------|-5------|-7--|
D|-7-|-2-|-5-|-7-|-6--6-|--10-----|-9------|-7------|-6--|
A|-7-|-2-|-3-|-5-|-7----|---------|--------|--------|-7--|
E|-5-|-0-|---|---|-8--7-|---------|--------|--------|----|

the rest is chorus. watch out for rythm-stuff ^ ^

| h  hammer-on
| p  pull-off
comments
We did not receive enough feedback on this tab! Please rate:
print report bad tab
1 2 3 4 5
I want to post or [tab]
guest
You may want to rate the tab now too:
select rating
Please do not post tabs as comments. Select "correction" instead!