Oops, an error
Loading. Please wait.

Widow Bass Tab

version 1
version 1

Whole song

Interactive

6,806 views 12 this week
1 commentread comment
1 2 3 4 5
accurate
x 6
add to favorites
launch autoscroll
font size
0
reset
guitar tuner
Tab Pro tools
  • play this tab
  • loop segment
  • change instrument
  • show fretboard
  • metronome
×
Best way to learn
"Widow"
Autoscroll
slow
fast
+/-
esc
set tempo
stop
Contributor
Difficulty
intermediate
The Mars Volta
Bass - Juan Alderete
"The Widow"
This has alot of weird time signatures.  It's also played on a 1971 Fretless Fender Precision Bass.

G--------------------------------------------------------------------------|
D-7-------9s10---7-------10-------9---------------7----9-------------------|
A---------------------------------------7---10-----------------------------|
E--------------------------------------------------------------------------|

G-----9s7---7-----7s5------------------------------------------------------|
D-7---------------------5--------10s9—9s7—7s5-5----------------------------|
A--------------------------------------------------------------------------|
E----------------------------0---------------------------------------------|

G-------------------------14-----------------------------------------------|
D-7s9--9---10---12---14--------14---7--5-----------------------------------|
A-----------------------------------------7--------------------------------|
E--------------------------------------------------------------------------|

G------7-------------------------------------------------------------------|
D----7---------------------------------------------------------------------|
A-5-------5----5----7--------7---------------------------------------------|
E-----------------------5---------5---5-------7--0----3--------------------|

G--------------------------------------------------------------------------|
D-----2-----------2-----------------------7--------------------------------|
A--------------------------------7--5--7-------5s7-------------------------|
E-0--------0--0-------3--3---5---------------------------------------------|

G-------------------------------9s7--7—7s5-4-5-----9-----------------------|
D-7—7s9-9----10---12---14---9--------------------7----7—9s10--9------------|
A--------------------------------------------------------------------------|
E--------------------------------------------------------------------------|

G---------------------------------------14---------------------------------|
D------------5s7-7-7s9---10---12---14------14----7--5----------------------|
A-7----------------------------------------------------7-------------------|
E----7--0--7---------------------------------------------------------------|

G--------------------------------------------------------------------------|
D------7-------------------------------------------------------------------|
A-5--------5--5----5----7--------7-----------------------------------------|
E---------------------------5--------5--5---7--0--3------------------------|

G---------------------------------------------------------------------------|
D------2----------2-------------------5h7-5h7--5---7-5---5------------------|
A-------------------------------7—5h7------------7-----7---7----------------|
E-0--------0--0------3--3---5--------------------------------8s7------------|

G--------------------------------------------------------------------------|
D--------------------------------------------------------------------------|
A------7---------7---------------------------------------------------------|
E-5---------5---------7—7s0---7---0---7---3-3------------------------------|

G--------------------------------------------------------------------------|
D-----------------7--------------------------------------------------------|
A---------7--------------7-------------------------------------------------|
E-5-----------------------------7-7----------------------------------------|

G--------------------------------------------------------------------------|
D--------------------------------------------------------------------------|
A--------------------------------------------------------------------------|
E-0----------------------7-----------------0-----------7----------3-3------|

G--------------------------------------------------------------------------|
D---------------------------------------------------------7--------5-5-----|
A------------7----------------------7--------------------------------------|
E-5------------------5----------------7--7---0----7----0-------------------|

G---------------------------14---------------------------------------------|
D-7s9---9----10---12---14--------14----7----5------------------------------|
A------------------------------------------------7-------------------------|
E--------------------------------------------------------------------------|

G---------------------------14---------------------------------------------|
D-7s9---9----10---12---14--------14----7----5------------------------------|
A------------------------------------------------7-------------------------|
E--------------------------------------------------------------------------|

G--------------------------------------------------------------------------|
D--------7-----------------------------------------------------------------|
A-5------------5---5-------5----7--7----------7----------------------------|
E---------------------------------------5----------5--5----7--0---5---3----|

G--------------------------------------------------------------------------|
D-----2----------2------------------5s7--5--7--5--7--5---------------------|
A-------------------------------7------------------------7-----------------|
E-0-------0---0-----3--3----5----------------------------------------------|

G--------------------------------------------------------------------------|
D------7-------------------------------------------------------------------|
A-5----------5---5----5---7-7--------7-------------------------------------|
E--------------------------------5-------5-5-----7--5--3-------------------|

G--------------------------------------------------------------------------|
D--------------------------------------------------------------------------|
A--------------------------------------------------------------------------|
E-0-------------0-----------5----------------------------------------------|

Have fun
comments
print report bad tab
1 comment total.
0 reply
joelymoleymoley wrote on November 27 2006, 02:08 pm

this is quite good in my opinion(although ive only played the intro), id say its the closest tab ive found yet.

well done

I want to post or [tab]
guest
You may want to rate the tab now too:
select rating
Please do not post tabs as comments. Select "correction" instead!