Oops, an error
Loading. Please wait.

Widow tab

version 1
version 1

Whole song

Interactive

56,572 views 33 this week
7 commentsread comments
1 2 3 4 5
x 22
add to favorites
×
Save as Personal and add changes to this tab that will be seen only by you. Learn more ›
×
You can save this tab as Personal to edit and correct it or add notes. All changes will be seen only by you. Learn more »
launch autoscroll
font size
0
reset
how to read this tab
guitar tuner
edit
Autoscroll
slow
fast
+/-
esc
set tempo
stop
Author
Ok, this is tabbed for 2 guitars, and the firts two lines are to be played at the same
time. just like 3 and 4, 5 and 6, ect ect. guitar 1 is electric, guitar 2 is an acoustic
i have included the words with the guitars for timing, but all the words wont be in there
for space, so get a copy of the song and it should be easy. the acoustic part is played
fast and hard to write without screwing up the tab, so excuse my messiness, its still the
right tab. Now since i cant fit all the tezt in, if theres a dot in front of the words,
it means start the playing at the beginning of that sentence, because i cant fit it all.

  Gtr.1
e|------------------------------------------------------------------------|
B|---10------12/13\12----10-------8/10-----/13\12----12\8----8-----(8)\5--|
G|------------------------------------------------------------------------|
D|------------------------------------------------------------------------|
A|------------------------------------------------------------------------|
E|------------------------------------------------------------------------|

 .lungs     .of clove splintered  shards    .the kind that will

  gtr.2 (finger picked)
e|----------------------------------|-----------------------------------------|
B|-1----------1----------1----------|---------------------------------------0-|
G|-----2----------2----------2------|-1----------1---------1--------1-----0---|
D|---------2----------2----------2--|-2----2---------2---------2--------0-----|
A|-0-0---0----0-0---0----0-0---0----|-2--------2---------2---------2--2-------|
E|----------------------------------|-0--0---0-----0---0-----0---0------------|

  Gtr.1
e|------------------------------------------------------------------------------|
B|--12-----(12)----(12)\10--------5/7---------5----------------------3----(3)---|
G|------------------------------------------------------------------------------|
D|------------------------------------------------------------------------------|
A|------------------------------------------------------------------------------|
E|------------------------------------------------------------------------------|
 talk                .a wheezing of coughs                .i hear him

  Gtr.2
e|------------------------------------------|--------------------------------------|
B|-1----------1---------1---------1---------|------------------------------------0-|
G|-2----2---------2---------2-------2-----2-|-1---------1-------1--------1-----0---|
D|-2--------2---------2---------2-------0---|-2---2--------2-------2---------0-----|
A|-0--0---0---0-0---0---0-0---0---0---2-----|-2-------2--------2-------2---2-------|
E|------------------------------------------|-0-0---0----0---0---0---0-------------|

  Gtr.1
e|-20--(20)\19--\17--(17)\15\-12--12\10--------12--(12)-----|
B|--------------------------------------10/12-----------10--|
G|----------------------------------------------------------|
D|----------------------------------------------------------|
A|----------------------------------------------------------|
E|----------------------------------------------------------|
 every night in every pore  and every  time he just makes me warm

  Gtr.2
e|------------------------------------------|-------------------------------------|
B|-1----------1---------1---------1---------|-2---------2---------2---------2-3-5-|
G|-2----2---------2---------2---------2-----|-----0---------0-----0---0-----0-3-5-|
D|-2--------2---------2---------2---------2-|---------2---------2---------2-------|
A|-0--0---0---0-0---0---0-0---0---0-0---0---|-0-0---0---0-0---0---0-0---0---0-2-4-|
E|------------------------------------------|-------------------------------------|

[Chorus]
Gtr.1 & 2
e|-1----------------(1)---------3------5--(5)----|-0----------------------------|
B|-3----------------(3)------------------------0-|-1-------1--1-----1-----------|
G|-2----------------(2)------------------------0-|-2-------------2--------2-----|
D|-0----------------(0)------------------------0-|-2-------------------------2--|
A|-----------------------------------------------|-0-------0--------0--0--------|
E|-----------------------------------------------|------------------------------|
.freeze Without an answer  .all the shame             must i hide       cause ill

  Gtr.1
e|---------------------------------------------------19-(19)\12-20--------12/20-|
B|------------------------------------------------------------------------------|
G|------------------------------------------------------------------------------|
D|------------------------------------------------------------------------------|
A|------------------------------------------------------------------------------|
E|------------------------------------------------------------------------------|
  never  never sleep  alone.                                    look at how they

 Gtr.2
e|------------------------------------------|--------------------------------------|
B|-1----------1---------1---------1---------|------------------------------------0-|
G|-2----2---------2---------2-------2-----2-|-1---------1-------1--------1-----0---|
D|-2--------2---------2---------2-------0---|-2---2--------2-------2---------0-----|
A|-0--0---0---0-0---0---0-0---0---0---2-----|-2-------2--------2-------2---2-------|
E|------------------------------------------|-0-0---0----0---0---0---0-------------|

 Gtr.1
e|-17--15-(15)\12--(12)/15\12-----------------12\10---------------------------10\7-|
B|----------------------------12/13/15--(15)\-------12-(12)-13--10-(10)\8-(8)/12\8-|
G|---------------------------------------------------------------------------------|
D|---------------------------------------------------------------------------------|
A|---------------------------------------------------------------------------------|
E|---------------------------------------------------------------------------------|

flock to him   from an isle of open sores      .that the taste is such  .such to die

 Gtr.2
e|------------------------------------------|--------------------------------------|
B|-1----------1---------1---------1---------|------------------------------------0-|
G|-2----2---------2---------2-------2-----2-|-1---------1-------1--------1-----0---|
D|-2--------2---------2---------2-------0---|-2---2--------2-------2---------0-----|
A|-0--0---0---0-0---0---0-0---0---0---2-----|-2-------2--------2-------2---2-------|
E|------------------------------------------|-0-0---0----0---0---0---0-------------|

 Gtr.1
e|--------------------------------------------------------------------------------3\-|
B|-13-(13)\6--(6)-5-3--5-(5)-10----12----13-(13)/15-15/17--17--(17)\10--(10)/17---3\-|
G|---------7--(7)-5-4----------------------------------------------------------------|
D|-----------------------------------------------------------------------------------|
A|-----------------------------------------------------------------------------------|
E|-----------------------------------------------------------------------------------|

for           .i hear him every night  .every street .that do sliver deliver me from

 Gtr.2
e|----------------------------------|-----------------------------------------|
B|-1----------1----------1----------|---------------------------------------0-|
G|-----2----------2----------2------|-1----------1---------1--------1-----0---|
D|---------2----------2----------2--|-2----2---------2---------2--------0-----|
A|-0-0---0----0-0---0----0-0---0----|-2--------2---------2---------2--2-------|
E|----------------------------------|-0--0---0-----0---0-----0---0------------|

[Chorus]
  Gtr.1 & 2
e|-1----------------(1)---------3------5--(5)----|-0-------(0)-----(0)---------------|
B|-3----------------(3)------------------------0-|-1-------(1)-----(1)---------0-(0)-|
G|-2----------------(2)------------------------0-|-2-------(2)-----(2)---------------|
D|-0----------------(0)------------------------0-|-2-------(2)-----(2)---------------|
A|-----------------------------------------------|-0-------(0)-----(0)---------------|
E|-----------------------------------------------|-----------------------------------|
.freeze Without an answer  .all the shame            then ill hide    cause ill

  Gtr.1
e|-------------------------0--(0)--------------------------------------------|
B|--------------------0------------1-----(1)---------------------------------|
G|-1----------(1)------------------2-----(2)---------------------------------|
D|-2----------(2)------------------2-----(2)---------------------------------|
A|-2----------(2)------------------0-----(0)---------------------------------|
E|-0----------(0)---------------------------------------------------3---(3)--|

 never      never  sleep alone                      oh lord

 Gtr.2
e|----------------------------------|-----------------------------------------|
B|-1----------1----------1----------|---------------------------------------0-|
G|-----2----------2----------2------|-1----------1---------1--------1-----0---|
D|---------2----------2----------2--|-2----2---------2---------2--------0-----|
A|-0-0---0----0-0---0----0-0---0----|-2--------2---------2---------2--2-------|
E|----------------------------------|-0--0---0-----0---0-----0---0------------|

[Guitar solo]
 Gtr.1  (guitar 2 does not play during the solo)
e|-0-------(0)--------(0)---------------------------------------------------0-(0)-|
B|-1-------(1)--------(1)---0--(0)------------------------------------------------|
G|-2-------(2)--------(2)------------1------------------(1)-------------(1)-------|
D|-2-------(2)--------(2)------------2------------------(2)-------------(2)-------|
A|-0-------(0)--------(0)------------2------------------(2)-------------(2)-------|
E|-0-------(0)--------(0)------------0------------------(0)-------------(0)-------|
            said im      said im    said im    said im  bloodshot for sure

 Gtr.1(remember, this and the above line are played AFTER one another, not at the
 same time)
e|--8-5-----8-5-----8-5-----8-5-----8-5-----8-5-----8-5-----8-8b-(8b)-------------|
B|------8-5-----8-5-----8-5-----8-5-----8-5-----8-5-----8-5-----------0-5-5-8-5-0-|
G|--------------------------------------------------------------------------------|
D|--------------------------------------------------------------------------------|
A|--------------------------------------------------------------------------------|
E|--------------------------------------------------------------------------------|

 Gtr.1
e|--8b-------------10b-(10b)---8-10-8-8-10-8---------------------------------------|
B|-----0-0-0-0-(0)---------------------------8-(8)---8---8-------------------------|
G|-----0---------------------0-----------------------------------------7-(7)-5-7-5-|
D|---------------------------------------------------------------------------------|
A|---------------------------------------------------------------------------------|
E|---------------------------------------------------------------------------------|
                                                pale      runs  the ghost

 Gtr.1
e|-------------------------------------------------------------------------------------|
B|-------------------------------------------------------------------------------------|
G|-0-4-(4)-4-5-5-4-5-7-5-0-5-0---------------------------------------------------------|
D|-----------------------------2-(2)-3-2-5-5-3-2---------------5-7-(7)-(7)-5-7-(7)-(7)-|
A|-----------------------------------------------3-2-0-3/7-(7)-------------------------|
E|-------------------------------------------------------------------------------------|
                                                                  said      im

 Gtr.1
e|--------------------------------------------------0-(0)-15-13-12---------------------|
B|-----------------------------------------------------------------12-13-15------------|
G|--------------------------------------------------------------------------14-14-(14)-|
D|-------------------------------------------------------------------------------------|
A|-------------------------------------------------------------------------------------|
E|-------------------------------------------------------------------------------------|
feelin  swollen on the shore  swollen on the shore  and   every

 Gtr.1
e|-------------------------------------------------------------------------------------|
B|-12-14-16-14-12----12-12-12-14-16-14-12-12-14b-(14b)-14-14-16-14-----------12b-(12b)-|
G|----------------14-----------------------------------------------14-12-14------------|
D|-------------------------------------------------------------------------------------|
A|-------------------------------------------------------------------------------------|
E|-------------------------------------------------------------------------------------|
 night                         in every                           pore             the

 Gtr.1
e|-------17------17-------17-------17-------17-----------------------------------------|
B|----17------17-------17-------17-------17-17----17-17-----17-20-17-20-17-20-20-17-20-|
G|-19------19-------19-------19-------19-------19-------19b----------------------------|
D|-------------------------------------------------------------------------------------|
A|-------------------------------------------------------------------------------------|
E| ------------------------------------------------------------------------------------|
 scales  that    do       slither             deliver               me        from..

 Gtr.1
e|-------17/19\17--|
B|-20-20-----------|
G|-----------------|
D|-----------------|
A|-----------------|
E|-----------------|

[Chorus]
  Gtr.1 and 2
e|-1----------------(1)---------3------5--(5)----|-0-------(0)-----(0)---------------|
B|-3----------------(3)------------------------0-|-1-------(1)-----(1)---------0-(0)-|
G|-2----------------(2)------------------------0-|-2-------(2)-----(2)---------------|
D|-0----------------(0)------------------------0-|-2-------(2)-----(2)---------------|
A|-----------------------------------------------|-0-------(0)-----(0)---------------|
E|-----------------------------------------------|-----------------------------------|
.freeze Without an answer  .all the shame            then ill hide    cause ill

  Gtr.1
e|-------------------------0--(0)--------------------------------------------|
B|--------------------0------------1-----------------------------------------|
G|-1----------(1)------------------2-----------------------------------------|
D|-2----------(2)------------------2-----------------------------------------|
A|-2----------(2)------------------0-----------------------------------------|
E|-0----------(0)------------------------------------------------------------|
  never       never   sleep    alone

 Gtr.2
e|------------------------------------------|--------------------------------------|
B|-1----------1---------1---------1---------|------------------------------------0-|
G|-2----2---------2---------2-------2-----2-|-1---------1-------1--------1-----0---|
D|-2--------2---------2---------2-------0---|-2---2--------2-------2---------0-----|
A|-0--0---0---0-0---0---0-0---0---0---2-----|-2-------2--------2-------2---2-------|
E|------------------------------------------|-0-0---0----0---0---0---0-------------|

  Gtr.1 and 2
e|-1----------------(1)---------3------5--(5)----|-0-------(0)-----(0)---------------|
B|-3----------------(3)------------------------0-|-1-------(1)-----(1)---------0-(0)-|
G|-2----------------(2)------------------------0-|-2-------(2)-----(2)---------------|
D|-0----------------(0)------------------------0-|-2-------(2)-----(2)---------------|
A|-----------------------------------------------|-0-------(0)-----(0)---------------|
E|-----------------------------------------------|-----------------------------------|
.freeze Without an answer  .all the shame                let me die     cause ill

 Gtr.1
e|-0---------------------------------------------0----------0-|
B|-0-------------------------------------------1---1--------1-|
G|-1-----------------------------------------2-------2------2-|
D|-2---------------------------------------2-----------2----2-|
A|-2-------------------------------------0------------------0-|
E|-0----------------------------------------------------------|
never          never     sleep   alone

There you go, thats the entire correct tab. Questions, comments, anything else, email
me at alexhaeni@cogeco.ca And PLEASE vote for this, it took very long to write.

************************************

| /    Slide up
| \    Slide down
| (n)  Ghost note
| b    Bend

************************************
Suggest correction
Creating personal tab
Creating personal tab
You can edit any tab online and save it as your Personal.

You can edit, replace or remove any tab part or add personal notes – all changes will be seen only by you.

Personal tabs can be accessed anytime from any device, even offline.
Learn more »
comments
print report bad tab
7 comments total. Showing first comments.
+1 reply
tom_nik 230 May 24, 2005 08:00 PM

awesome tab

0 reply
FunkyC*FunkyDu* 10 Jul 28, 2006 10:31 AM

perfect except remember that the final Am is an upstroke. right on man keep makin tabs

+1 reply
furrycow 209 Sep 12, 2006 07:22 AM

great tab. thanks

guest
You may want to rate the tab now too:
select rating
Wanna post a correction for this tab? Suggest correction