Oops, an error
Loading. Please wait.

With Twilight As My Guide tab

version 1
version 1

Whole song

Interactive

22,506 views 12 this week
3 commentsread comments
1 2 3 4 5
x 15
add to favorites
×
Save as Personal and add changes to this tab that will be seen only by you. Learn more ›
×
You can save this tab as Personal to edit and correct it or add notes. All changes will be seen only by you. Learn more »
launch autoscroll
font size
0
reset
how to read this tab
guitar tuner
edit
Autoscroll
slow
fast
+/-
esc
set tempo
stop
Author
#----------------------------------PLEASE NOTE---------------------------------#
#This file is the author's own work and represents their interpretation of the #
#song. You may only use this file for private study, scholarship, or research. #
#------------------------------------------------------------------------------##


Artist: The Mars Volta
Song: With Twilight As My Guide
Tabbed by: Manthony
06.02.09


TUNING: (E A D G B E)



////////////////////////////////////////////////////////
CHORD DIAGRAM


     Em   Badd9+ D    G/E     Am6       B7   Gadd9           
               
E||--0-----------2----7----|--0----0---------------
B||--0-----------3----8----|--1----1----0----------
G||--0----8------2---------|--x----0----2----2-----
D||--2----0------0----0----|--4----2----4----0-----
A||--2----6-----------7----|--0----3----2----2-----
E||--0----7----------------|-----------------3-----

////////////////////////////////////////////////////////








E||---------------------------------------------------||
B||---------------------------------------------------||
G||-------0-----------0-----------0-----------0-------|| 
D||-----2---2-------2---2-------2---2-------2---2-----||
A||---2-------2---2-------2---2-------2---2-------2---||
E||-0-----------0-----------0-----------0-------------||


	E||--------------------------------------------------||
	B||--------------------------------------------------||
	G||-------8-----------8-----------8-----------8------|| 
	D||-----0---0-------0---0-------0---0-------0---0----||
	A||---6-------6---6-------6---6-------6---6-------6--||
	E||-7-----------7-----------7-----------7------------||


I'm bolted from within
	from long conniving heights
	The hail, it makes a special sound
		that always stays into the night


	She tells me I'm not capable
		of what they accuse me
		With no remorse I stand and say
			that guilt is what I plead





CHORUS
............................................................................


E||-------2-----------2-----------2-----------2------||
B||-----3---3-------3---3-------3---3-------3---3----||
G||---2-------2---2-------2---2-------2---2-------2--|| 
D||-0-----------0-----------0-----------0------------||
A||--------------------------------------------------||
E||--------------------------------------------------||
My devil makes me dream
		like no other mortal dreams
			With a ____




	E||-----7---7-------7---7-------7---7-------7---7----||
	B||-------8---8-------8---8-------8---8-------8---8--||
	G||--------------------------------------------------|| 
	D||---0-----------0-----------0-----------0----------||
	A||-7-----------7-----------7-----------7------------||
	E||--------------------------------------------------||
	  ___ blank eye corner





E||-----------------------------------------------------||
B||-----1-0-1--------1-0-1--------1-0-1--------1-0-1----||
G||-----------------------------------------------------|| 
D||---4-------4----4-------4----4-------4----4-------4--||
A||-0------------0------------0------------0------------||
E||-----------------------------------------------------||
	The only way to see him
		in the tunnel where he slept
		By the ____



E||-----------------------------------------------------||
B||-----1-0-1--------1-0-1--------1-0-1--------1-0-1----||
G||-----------0------------0------------0------------0--|| 
D||---2------------2------------2------------2----------||
A||-3------------3------------3------------3------------||
E||-----------------------------------------------------||
   ____longest tusk of corridors
			    numb below the neck





E||--------------------------------------------------|-0~--||
B||-------0-----------0-----------0-----------0------|-0~--||
G||-----2---2-------2---2-------2---2-------2---2----|-0~--|| 
D||---4-------4---4-------4---4-------4---4-------4--|-2~--||
A||-2-----------2-----------2-----------2------------|-2~--||
E||--------------------------------------------------|-0~--||
	In my heart

		Where he keeps them
			in a vault of devil daughters




............................................................................




E||---------------------------------------------------||
B||---------------------------------------------------||
G||-------0-----------0-----------0-----------0-------|| 
D||-----2---2-------2---2-------2---2-------2---2-----||
A||---2-------2---2-------2---2-------2---2-------2---||
E||-0-----------0-----------0-----------0-------------||


	E||--------------------------------------------------||
	B||--------------------------------------------------||
	G||-------8-----------8-----------8-----------8------|| 
	D||-----0---0-------0---0-------0---0-------0---0----||
	A||---6-------6---6-------6---6-------6---6-------6--||
	E||-7-----------7-----------7-----------7------------||


	When I bend in kicking form
		with twilight as my guide
		In every home the ghost veins gossip
			you can hear them if you try


		When my quill begins to squirm
			from the ashes in your urn
				Your deviance is anything but faithful





CHORUS
............................................................................


E||-------2-----------2-----------2-----------2------||
B||-----3---3-------3---3-------3---3-------3---3----||
G||---2-------2---2-------2---2-------2---2-------2--|| 
D||-0-----------0-----------0-----------0------------||
A||--------------------------------------------------||
E||--------------------------------------------------||
My devil makes me dream
		like no other mortal dreams
			With a ____




	E||-----7---7-------7---7-------7---7-------7---7----||
	B||-------8---8-------8---8-------8---8-------8---8--||
	G||--------------------------------------------------|| 
	D||---0-----------0-----------0-----------0----------||
	A||-7-----------7-----------7-----------7------------||
	E||--------------------------------------------------||
	  ___ blank eye corner





E||-----------------------------------------------------||
B||-----1-0-1--------1-0-1--------1-0-1--------1-0-1----||
G||-----------------------------------------------------|| 
D||---4-------4----4-------4----4-------4----4-------4--||
A||-0------------0------------0------------0------------||
E||-----------------------------------------------------||
	The only way to see him
		in the tunnel where he slept
		By the ____



E||-----------------------------------------------------||
B||-----1-0-1--------1-0-1--------1-0-1--------1-0-1----||
G||-----------0------------0------------0------------0--|| 
D||---2------------2------------2------------2----------||
A||-3------------3------------3------------3------------||
E||-----------------------------------------------------||
   ____longest tusk of corridors
			    numb below the neck





E||--------------------------------------------------|-0~--||
B||-------0-----------0-----------0-----------0------|-0~--||
G||-----2---2-------2---2-------2---2-------2---2----|-0~--|| 
D||---4-------4---4-------4---4-------4---4-------4--|-2~--||
A||-2-----------2-----------2-----------2------------|-2~--||
E||--------------------------------------------------|-0~--||
	In my heart

		Where he keeps them
			in a vault of devil daughters




............................................................................
BRIDGE



E||---------------------------------------------------||
B||---------------------------------------------------||
G||-------0-----------0-----------0-----------0-------|| 
D||-----2---2-------2---2-------2---2-------2---2-----||
A||---2-------2---2-------2---2-------2---2-------2---||
E||-0-----------0-----------0-----------0-------------||
   
   
	E||---------------------------------------------------||
	B||---------------------------------------------------||
	G||-------2-----------2-----------2-----------2-------|| 
	D||-----0---0-------0---0-------0---0-------0---0-----||
	A||---2-------2---2-------2---2-------2---2-------2---||
	E||-3-----------3-----------3-----------3-------------||
  
 


	Everybody
		hands like dead leaves
			Don't you hurt these
				branches waiting

	I've been watching
			you fall to me
				Don't desert me
					I'm not waiting










// REPEAT //


#----------------------------------PLEASE NOTE---------------------------------#
#This file is the author's own work and represents their interpretation of the #
#song. You may only use this file for private study, scholarship, or research. #
#------------------------------------------------------------------------------##





            
            
Suggest correction
Creating personal tab
Creating personal tab
You can edit any tab online and save it as your Personal.

You can edit, replace or remove any tab part or add personal notes – all changes will be seen only by you.

Personal tabs can be accessed anytime from any device, even offline.
Learn more »
comments
print report bad tab
3 comments total.
+2 reply
JP240Z 10 Jun 22, 2009 05:12 PM

damn your good this album just came out today

0 reply
joshro 10 Jul 03, 2009 05:26 PM

This song is enchantingly beautiful. Thank you so much for tabbing it.

guest
You may want to rate the tab now too:
select rating
Wanna post a correction for this tab? Suggest correction