Oops, an error
Loading. Please wait.

With Twilight As My Guide Tab

version 2
version 2

Whole song

Interactive

6,507 views 1 this week
4 commentsread comments
1 2 3 4 5
excellent!
x 3
add to favorites
launch autoscroll
font size
0
reset
how to read this tab
guitar tuner
Tab Pro tools
  • play this tab
  • loop segment
  • change instrument
  • show fretboard
  • metronome
×
Best way to learn
"With Twilight As My Guide"
Autoscroll
slow
fast
+/-
esc
set tempo
stop
Contributor
-------------------------------------------------------------------------------           
WITH TWILIGHT AS MY GUIDE - The Mars Volta
-------------------------------------------------------------------------------

Tabbed by: Steve Dubuque
Email: sdubuque_vp@hotmail.com

Tuning: Standard, but at 448Hz (as oppose to the normal 440Hz) 
E A D G B E

Use a calibrated tuner to set calibration at 448Hz; if 
you want to get the EXACT pitch of the song, that is. 
Regular tuning will work fine for most people, but the 
sensitive ear will notice it sounds slightly off.

Also, the other tab that is out there for this song,
submitted by Manthony, is close, but this is definitely 
a more accurate transcription. 

Enjoy.


(0:00)
 
e|----------------------------------------------------------------------------|
B|----------------------------------------------------------------------------|
G|--------0-----------0-----------0-----------0-------------------------------|
D|------2---2-------2---2-------2---2-------2---2-----------------------------|
A|----2-------2---2-------2---2-------2---2--------0--------------------------|
E|--0-----------0-----------0-----------0-------------------------------------|

e|----------------------------------------------------------------------------|
B|----------------------------------------------------------------------------|
G|--------8-----------8-----------8-----------8-------------------------------|
D|------0---0-------0---0-------0---0-------0---0-----------------------------|
A|----6-------6---6-------6---6-------6---6-------6---------------------------|
E|--7-----------7-----------7-----------7-------------------------------------|



0:48 (My devil makes me dream...)

e|----------------------------------------------------------------------------|
B|----------------------------------------------------------------------------|
G|---------11------------11------------11------------11-----------------------|
D|-------0----0--------0----0--------0----0--------0----0---------------------|
A|-----9--------9----9--------9----9--------9----9--------9-------------------|
E|--10------------10------------10------------10------------------------------|



0:55 (with a blank.. eye... corner)

e|----------------------------------------------------------------------------|
B|--------12----12---------12----12---------12----12---------12----12---------|
G|-----------12----12---------12----12---------12----12---------12----12------|
D|-----0-----------------0----------------0----------------0------------------|
A|----------------------------------------------------------------------------|
E|--12----------------12---------------12---------------12--------------------|



1:03 (the only way...

e|----------------------------------------------------------------------------|
B|--------0-----------0-----------0-----------0-------------------------------|
G|------5---5-------5---5-------5---5-------5---5-----------------------------|
D|----4-------4---4-------4---4-------4---4-------4---------------------------|
A|--0-----------0-----------0-----------0-------------------------------------|
E|----------------------------------------------------------------------------|



1:10

e|----------------------------------------------------------------------------|
B|--------0-----------0-----------0-----------0-------------------------------|
G|------4---4-------4---4-------4---4-------4---4-----------------------------|
D|----0-------0---0-------0---0-------0---0-------0---------------------------|
A|--3-----------3-----------3-----------3-------------------------------------|
E|----------------------------------------------------------------------------|



1:18 (In my heart...)

e|------------------------------------------------------I---------------------|
B|--------0-----------0-----------0-----------0---------I--then---------------|
G|------2---2-------2---2-------2---2-------2-----------I--back---------------|
D|----0-------0---0-------0---0-------0---0--------0----I--to-----------------|
A|--2-----------2-----------2-----------2---------------I--intro--------------|
E|----------------------------------------------3-------I---------------------|



3:07 (Evverybody....)

e|----------------------------------------------------------------------------|
B|----------------------------------------------------------------------------|
G|--------0-----------0-----------0-----------0-------------------------------|
D|------2---2-------2---2-------2---2-------2---2-----------------------------|
A|----2-------2---2-------2---2-------2---2-------0---------------------------|
E|--0-----------0-----------0-----------0-------------------------------------|


e|----------------------------------------------------------------------------|
B|----------------------------------------------------------------------------|
G|--------2-----------2-----------2-----------2-------------------------------|
D|------0---0-------0---0-------0---0-------0---0-----------------------------|
A|----0-------0---2-------0---0-------0---2-------0---------------------------|
E|--3-----------3-----------3-----------3-------------------------------------|


5:02 (In my heart...)    
*not positive on the two starred chords
      
e|-----------------------------0~---0~---0~-----------------------------------|
B|--------0-----------0--------0~---0~---0~-----------------------------------|
G|------2---2-------2---2------5~---4~---0~-----------------------------------|
D|----0-------0---0-------0----0~---0~---2~-----------------------------------|
A|--2-----------2--------------2~---2~---2~-----------------------------------|
E|---------------------------------------0~-----------------------------------|
			       *    *
			       ^    ^
		 

5:18 (on electric, using slide)

e|--/15--15-15-15--15-15-15\14-14-----/15--15-15-15-15-15-15\14/17------------|
B|----------------------------------------------------------------------------|
G|----------------------------------------------------------------------------|
D|----------------------------------------------------------------------------|
A|----------------------------------------------------------------------------|
E|----------------------------------------------------------------------------|
                                



| /  slide up
| \  slide down
| h  hammer-on
| p  pull-off
| ~  vibrato
| +  harmonic
| x  Mute note
===============================================================================
comments
We did not receive enough feedback on this tab! Please rate:
print report bad tab
1 2 3 4 5
4 comments total. Showing first comments.
0 reply
Manovision wrote on August 7 2009, 08:36 pm

Fantastic! Kudos to you,

0 reply
sdubuque43 wrote on August 14 2009, 02:49 pm

MISTAKE: THIS SONG IS IN REGULAR, PLAIN OLD STANDARD TUNING (440 Hz). Disregard the paragraph at the beginning. When I transcribed this song, I was listening to the song through Youtube, and apparently it changed the pitch of the song slightly, because playing along to this song on a cd afterwords, the song is clearly in standard tuning.

0 reply
sdubuque43 wrote on August 14 2009, 02:49 pm

MISTAKE: THIS SONG IS IN REGULAR, PLAIN OLD STANDARD TUNING (440 Hz). Disregard the paragraph at the beginning. When I transcribed this song, I was listening to the song through Youtube, and apparently it changed the pitch of the song slightly, because playing along to this song on a cd afterwords, the song is clearly in standard tuning.

I want to post or [tab]
guest
You may want to rate the tab now too:
select rating
Please do not post tabs as comments. Select "correction" instead!