Oops, an error
Loading. Please wait.
We have Chord Pro version of Cant You See.
It's the closest thing you can get to the original song and it has interactive parts. Check out the tab »
×
324,424 views 486 this week
39 commentsread comments
1 2 3 4 5
x 265
add to favorites
launch autoscroll
font size
0
reset
how to read this tab
guitar tuner
backing track
0:00
0:00
Autoscroll
slow
fast
+/-
esc
set tempo
stop
Author
--------------------------------------------------------------------------
                             Can't you see - Marshall Tucker Band
--------------------------------------------------------------------------
Tabbed by: Ryan Baker   
Email: ohiogrown05@netzero.net


         I have no idea why this tabs getting such low votes, it's very
      accurate.  Please don't vote a 3 just because it may be to 
      difficult.  And email if you have any corrections or requests.




e|------2-----3-2---------2-0---------0-----3-0---3-----------------2-3-2-|
B|--3-----3-------3-----3-----------3---3---3-3---3-----------------3-3-3-|
G|----2-----2-------2-------------0-------0-2-2---0-----0-----0-----2-2-2-|
D|0-------------------0---------0-----------------0---------0-----0-0-0-0-|
A|----------------------------3---------------------0h2---0---------------|
E|----------------------------------------------3---------------3---------|

e|0h2-------------------------------------------------------17-17-19-17h19|
B|3---------10-10-12-10h12p10----------10----------15-17s19---------------|
G|2---7-9/11------------------7-7-9s11----9h11p9-7------------------------|
D|0-----------------------------------------------------------------------|
A|------------------------------------------------------------------------|
E|------------------------------------------------------------------------|

e|p17------------17-------------14p12-12p10-------------------------------|
B|---15-15-17s19----17h19p17-15-------------12----------------------------|
G|---------------------------------------------11p9s7---------7h9p7-9b-7--|
D|--------------------------------------------------------7h9------------9|
A|----------------------------------------------------7h9-----------------|
E|------------------------------------------------------------------------|

e|------------------------------------------------------------------------|
B|------------------------------------------------------------------------|
G|7-7-9b-9b-7-9-7-9p7-9b-7---7-----9b-9b-7-9b-7---7-7--------7-10s9-7---7-|
D|-------------------------9---9-7--------------9--------7h9----------9---|
A|----------------------------------------------------10------------------|
E|------------------------------------------------------------------------|

Continue with a D C G strum pattern



************************************

| h  Hammer-on
| p  Pull-off
| b  Bend
| /  Slide up
| s  Slide

************************************
Suggest correction
comments
print report bad tab
39 comments total. Showing first comments.
+1 reply
freebird17 71 Feb 14, 2006 01:57 PM

very accurate except for the timing. still great tab

-1 reply
Dontbeahata 21 May 14, 2006 05:36 AM

where's the strumming thats one of the hardest tabs ive ever seen

+7 reply
Black`Mage 117 May 28, 2006 12:04 PM

Most of the tab isn't even there...

guest
You may want to rate the tab now too:
select rating
Wanna post a correction for this tab? Suggest correction