Oops, an error
Loading. Please wait.

Fire On The Mountain Tab

version 1
version 1

Whole song

Interactive

82 views 3 this week
no commentswrite comment
1 2 3 4 5
2 more votes to show rating
add to favorites
launch autoscroll
font size
0
reset
how to read this tab
guitar tuner
Autoscroll
slow
fast
+/-
esc
set tempo
stop
Help us to improve Ultimate-Guitar.com Take our survey!
×
Author
Difficulty
intermediate
FIRE ON THE MOUNTAIN

As recorded by The Marshall Tucker Band
(From the 1975 Album SEARCHIN' FOR A RAINBOW)

Words and Music by George McCorkle

Transcribed by Slowhand


Gtr I (E A D G B E) - 'George McCorkle - Acoustic Guitar'
Gtr II (E A D G B E) - 'Toy Caldwell - Pedal Steel Guitar'
Gtr III (E A D G B E) - 'George McCorkle - Acoustic Guitar'
Gtr IV (E A D G B E) - 'Toy Caldwell - Acoustic Guitar'


 Intro
  Slowly Q=78
  G                           D
 4/4
  Gtr II (Pedal Steel arr. for Gtr.)
   E  E  E.  S  Q      E  E    Q       S  S  +S   S  Q      Q
|----19-19--19-19-----19-19-|---------17-------------------17--|
|---------------------------|-17b19======17r(17)-15-17b19------|
|----19-19--19-19b21--19-19-|----------------------------------|
|---------------------------|----------------------------------|
|---------------------------|----------------------------------|
|---------------------------|----------------------------------|
|
| Gtr I (Ac. Gtr.)
|  W                           W
|-^3------------------------|-^2-------------------------------|
|-^0------------------------|-^3-------------------------------|
|-^0------------------------|-^2-------------------------------|
|-^0------------------------|-^0-------------------------------|
|-^2------------------------|----------------------------------|
|-^3------------------------|----------------------------------|


  Am
   Q      E     +E   Q      E.  S
|--------------------------15--15-|
|-15b17--15b17r(15)-15b17--15--15-|
|---------------------------------|
|---------------------------------|
|---------------------------------|
|---------------------------------|
|
|  W
|-^0------------------------------|
|-^1------------------------------|
|-^2------------------------------|
|-^2------------------------------|
|-^0------------------------------|
|---------------------------------|


                                        Faster Q=94
  C
 2/4                       4/4
   E     E     E     E       Q    +Q     H
|-15----15----15----15----|-15---(15)\--10---------|
|-15b17-15b17-15b17-15b17-|-15---(15)\--10b12------|
|-------------------------|------------------------|
|-------------------------|------------------------|
|-------------------------|------------------------|
|-------------------------|------------------------|
|
|  H                         H.                E E
|-^0----------------------|-^3---------------------|
|-^1----------------------|-^0---------------------|
|-^0----------------------|-^0---------------------|
|-^2----------------------|-^0---------------------|
|-^3----------------------|-^2---------------------|
|-------------------------|-^3-----------------3-2-|


  Em
       PM--------------------|
  E.   S S S S S S S S S S S S S
|--------------------------------|
|------------8-------8-------8---|
|------7h9-9---7h9-9---7h9-9---7-|
|--------------------------------|
|--------------------------------|
|--------------------------------|
|
| E  S S S S S S E   S S S S S S
|----0-0-----0-0-----0-0-----0-0-|
|----0-0-----0-0-----0-0-----0-0-|
|----0-0-----0-0-----0-0-----0-0-|
|--------0h2-------------0h2-----|
|--------------------------------|
|-0--------------0---------------|


                                        C
  S E.     +E   E   S E.     +E   E      Q.          +E     H
|-------------------------------------|-----------------------------------|
|-------------------------------------|-13----------(13)s==17-------------|
|-7s9------(9)--7---7s9------(9)------|-12----------(12)s==17-------------|
|-------------------------------------|-----------------------------------|
|-------------------------------------|-----------------------------------|
|-------------------------------------|-----------------------------------|
|
| E    S S  S S S S E    S S  S S S S    E  S S S S   S  S  E S S S S S S
|------0-0------0-0------0-0------0-0-|-----0-0-------0--0----0-0-----0-0-|
|------0-0------0-0------0-0------0-0-|-----1-1-------1--1----1-1-----1-1-|
|------0-0------0-0------0-0------0-0-|-----0-0-------0--0----0-0-----0-0-|
|-----------0h2---------------0h2-----|---------0h2---------------0h2-----|
|-------------------------------------|--3------------------3-------------|
|-0-----------------0-----------------|-----------------------------------|


           ~~~~
   E      +Q         +E      Q.         E
|-20-----(20)-------(20)---------------------|
|--------------------------------------------|
|-19b21==(19)-------(19)rs==14---------------|
|--------------------------------------------|
|--------------------------------------------|
|--------------------------------------------|
|
|  E       S  S S S   S   S  E  S S S S S S
|----------0--0-------0---0-----0-0-----0-0--|
|----------1--1-------1---1-----1-1-----1-1--|
|----------0--0-------0---0-----0-0-----0-0--|
|---------------0h2-----------------0h2------|
|--3-------------------------3---------------|
|--------------------------------------------|


  Em
       PM--------------------------------------|
  E.   S S S S S S S S S S S S S   S S S S S S S S S E.     +E    E
|--------------------------------|------------------------------------|
|------------8-------8-------8---|-----8-------8----------------------|
|------7h9-9---7h9-9---7h9-9---7h|=9-9---7h9-9---7-7s9------(9)s==7---|
|--------------------------------|------------------------------------|
|--------------------------------|------------------------------------|
|--------------------------------|------------------------------------|
|
| E  S S S S S S E   S S S S S S   E   S S S S S S E    S S  S  S S S
|----0-0-----0-0-----0-0-----0-0-|-----0-0-----0-0------0-0-------0-0-|
|----0-0-----0-0-----0-0-----0-0-|-----0-0-----0-0------0-0-------0-0-|
|----0-0-----0-0-----0-0-----0-0-|-----0-0-----0-0------0-0-------0-0-|
|--------0h2-------------0h2-----|---------0h2---------------0h=2-----|
|--------------------------------|------------------------------------|
|-0--------------0---------------|-0---------------0------------------|


  C
                        ~~~~~~~~~~~~
  S E.     +E    E   S  E.      +E   E
|-----------------------------------------|
|-3-5------(5)--/8---8-10------(10)--8----|
|-4-5------(5)--/9---9-10------(10)--9----|
|-----------------------------------------|
|-----------------------------------------|
|-----------------------------------------|
|
| E    S S  S S  S S E     S S   S S S S
|------0-0-------0-0-------0-0-------0-0--|
|------1-1-------1-1-------1-1-------1-1--|
|------0-0-------0-0-------0-0-------0-0--|
|-----------0h2------------------0h2------|
|-3------------------3--------------------|
|-----------------------------------------|


                                      $
      ~~~~~~~~~~~~
   S  E.      +Q        H
|----------------------20-------------|
|-15-17------(17)------17-------------|
|-16-17------(17)---------------------|
|-------------------------------------|
|-------------------------------------|
|-------------------------------------|
|
|  E     S S   S S S S  E S S S S S S
|--------0-0-------0-0----0-0-----0-0-|
|--------1-1-------1-1----1-1-----1-1-|
|--------0-0-------0-0----0-0-----0-0-|
|--------------0h2------------0h2-----|
|--3--------------------3-------------|
|-------------------------------------|


   1st - 3rd Verses
    Em                            C
    W                             W
||------------------------------|-------------------------------|
||o-----------------------------|-------------------------------|
||------------------------------|-------------------------------|
||------------------------------|-------------------------------|
||o-----------------------------|-------------------------------|
||------------------------------|-------------------------------|
|
|   E S S S S S S E S S S S S S   E S S S S S S E S S S S S S
||----0-0-----0-0---0-0-----0-0-|---0-0-----0-0---0-0-----0-0---|
||o---0-0-----0-0---0-0-----0-0-|---1-1-----1-1---1-1-----1-1---|
||----0-0-----0-0---0-0-----0-0-|---0-0-----0-0---0-0-----0-0---|
||--------0h2-----------0h2-----|-------0h2-----------0h2-------|
||o-----------------------------|-3-------------3---------------|
||--0-------------0-------------|-------------------------------|


  Em
  Gtr I
  E S S S S S S E S S S S S S
|---0-0-----0-0---0-0-----0-0-|
|---0-0-----0-0---0-0-----0-0-|
|---0-0-----0-0---0-0-----0-0-|
|-------0h2-----------0h2-----|
|-----------------------------|
|-0-------------0-------------|


  C                             Em
  E S S S S S S E S S S S S S   E S S S S S S E S S S S S S
|---0-0-----0-0---0-0-----0-0-|---0-0-----0-0---0-0-----0-0-|
|---1-1-----1-1---1-1-----1-1-|---0-0-----0-0---0-0-----0-0-|
|---0-0-----0-0---0-0-----0-0-|---0-0-----0-0---0-0-----0-0-|
|-------0h2-----------0h2-----|-------0h2-----------0h2-----|
|-3-------------3-------------|-----------------------------|
|-----------------------------|-0-------------0-------------|


  C                             Em
  E S S S S S S E S S S S S S   E S S S S S S E S S S S S S
|---0-0-----0-0---0-0-----0-0-|---0-0-----0-0---0-0-----0-0-|
|---1-1-----1-1---1-1-----1-1-|---0-0-----0-0---0-0-----0-0-|
|---0-0-----0-0---0-0-----0-0-|---0-0-----0-0---0-0-----0-0-|
|-------0h2-----------0h2-----|-------0h2-----------0h2-----|
|-3-------------3-------------|-----------------------------|
|-----------------------------|-0-------------0-------------|


  C
  E S S S S S S E S S S S S S
|---0-0-----0-0---0-0-----0-0-||
|---1-1-----1-1---1-1-----1-1-||
|---0-0-----0-0---0-0-----0-0-||
|-------0h2-----------0h2-----||
|-3-------------3-------------||
|-----------------------------||


 Chorus
  G                   D                   Am
  E Q  S S E Q  S S   E Q  S S E Q  S S   E Q  S S E Q  S S
|---3--3-3---3--3-3-|---2--2-2---2--2-2-|---0--0-0---0--0-0--|
|---0--0-0---0--0-0-|---3--3-3---3--3-3-|---1--1-1---1--1-1--|
|---0--0-0---0--0-0-|---2--2-2---2--2-2-|---2--2-2---2--2-2--|
|---0--0-0---0--0-0-|-0-0--0-0-0-0--0-0-|---2--2-2---2--2-2--|
|---2--2-2---2--2-2-|-------------------|-0-0--0-0-0-0--0-0--|
|-3-3--3-3-3-3--3-3-|-------------------|--------------------|


             1.
    To Coda
  C           Em                              C
 2/4         4/4
  E Q  S S    E S S S S S S   E S S S S S S   E S S S S S S E S S S S S S
|---0--0-0--|---0-0-----0-0-----0-0-----0-0-|---0-0-----0-0---0-0-----0-0--|
|---1--1-1--|---0-0-----0-0-----0-0-----0-0-|---1-1-----1-1---1-1-----1-1--|
|---0--0-0--|---0-0-----0-0-----0-0-----0-0-|---0-0-----0-0---0-0-----0-0--|
|---2--2-2--|-------0h2-------------0h2-----|-------0h2-----------0h2------|
|-3-3--3-3--|-------------------------------|-3-------------3--------------|
|-----------|-0---------------0-------------|------------------------------|
|
| Gtr IV (Ac. Gtr.)
| W           Q     Q         Q     Q         Q     E   E   E E   Q
|-----------|-------------------------------|------------------------------|
|-----------|-------------------------------|------------------------------|
|-----------|-4-----2---------0-------------|---------------0-2---4--------|
|-----------|-----------------------4-------|-2-----2---4------------------|
|-----------|-------------------------------|------------------------------|
|-----------|-------------------------------|------------------------------|
|
| Gtr III (Ac. Gtr.)
| W           Q     Q       a Q     Q         Q     E   E   E E   Q
|-----------|-------------------------------|------------------------------|
|-----------|-------------------------------|------------------------------|
|-----------|-4-----2-----------------------|---------------0-2---4--------|
|-----------|---------------2s4-----4-------|-------2---4------------------|
|-----------|-------------------------------|-3----------------------------|
|-----------|-------------------------------|------------------------------|


  Em
  E S S S S S S   E S S S S S S
|---0-0-----0-0-----0-0-----0-0-|
|---0-0-----0-0-----0-0-----0-0-|
|---0-0-----0-0-----0-0-----0-0-|
|-------0h2-------------0h2-----|
|-------------------------------|
|-0---------------0-------------|
|
| Q     Q         Q     Q
|-------------------------------|
|-------------------------------|
|-4-----2---------0-------------|
|-----------------------4-------|
|-------------------------------|
|-------------------------------|
|
| Q     Q       a Q     Q
|-------------------------------|
|-------------------------------|
|-4-----2-----------------------|
|---------------2s4-----4-------|
|-------------------------------|
|-------------------------------|


                                  2.
  C                                Em
  E S S S S S S E S S S S  S S     E S S S S S S E S S S S S S
|---0-0-----0-0---0-0------0-0--||---0-0-----0-0---0-0-----0-0---|
|---1-1-----1-1---1-1------1-1-o||---0-0-----0-0---0-0-----0-0---|
|---0-0-----0-0---0-0------0-0--||---0-0-----0-0---0-0-----0-0---|
|-------0h2-----------0h2-------||-------0h2-----------0h2-------|
|-3-------------3--------------o||-------------------------------|
|-------------------------------||-0-------------0---------------|
|
| Q     E   E   E E   S E.         W
|-------------------------------||-------------------------------|
|------------------------------o||-------------------------------|
|---------------0-2---2h4-------||-------------------------------|
|-2-----2---4-------------------||-------------------------------|
|------------------------------o||-------------------------------|
|-------------------------------||-------------------------------|
|
| Q     E   E   E E   S E.         W
|-------------------------------||-------------------------------|
|------------------------------o||-------------------------------|
|---------------0-2---2h4-------||-------------------------------|
|-------2---4-------------------||-------------------------------|
|-3----------------------------o||-------------------------------|
|-------------------------------||-------------------------------|


  C                             Em
  E S S S S S S E S S S S S S   E  S S S S S S   E   S S S S S S
|---0-0-----0-0---0-0-----0-0-|----0-0-----0-0-------0-0-----0-0-|
|---1-1-----1-1---1-1-----1-1-|----0-0-----0-0-------0-0-----0-0-|
|---0-0-----0-0---0-0-----0-0-|----0-0-----0-0-------0-0-----0-0-|
|-------0h2-----------0h2-----|--------0h2---------------0h2-----|
|-3-------------3-------------|----------------------------------|
|-----------------------------|-0----------------0---------------|
|
| Gtr II
| H             Q     Q         E.   S S S S S   S S S S S S E
|-----------------------------|----------------------------------|
|-----------------------------|------------------------------8---|
|---------------------7-------|-9----7h9-9---7h==9-9---7h9-9-7---|
|-----------------------------|----------------------------------|
|-----------------------------|----------------------------------|
|-----------------------------|----------------------------------|
|
| Gtrs III, IV
| W                             Q      Q       a Q       Q
|-----------------------------|----------------------------------|
|-----------------------------|----------------------------------|
|-----------------------------|-4------2-------------------------|
|-----------------------------|----------------2s4-------4-------|
|-----------------------------|----------------------------------|
|-----------------------------|----------------------------------|


  C
  E  S  S S S S S E  S  S   S  S       S   S
|----0--0-----0-0----0--0--------------0---0--||
|----1--1-----1-1----1--1--------------1---1--||
|----0--0-----0-0----0--0--------------0---0--||
|---------0h2---------------0h=2--------------||
|-3---------------3---------------------------||
|---------------------------------------------||
|
| E  Q        E   E  S  S  +S  S      +S   S
|-------------------15------------------------||
|-8-(8)----------------15-(15)----------------||
|-7h=9------------------------14pb16r(14)-12--||
|---------------------------------------------||
|---------------------------------------------||
|---------------------------------------------||
|
| Q       E   E   E  E      S  E.
|---------------------------------------------||
|---------------------------------------------||
|-----------------0--2------2h=4--------------||
|---------2---4-------------------------------||
|-3-------------------------------------------||
|---------------------------------------------||


 Pedal Steel Solo
  G
   E          Q         S   S  E     Q              S   S
|-------------3---------3---3--------3--------------3---3-|
|-------------0---------0---0--------0--------------0---0-|
|-------------0---------0---0--------0--------------0---0-|
|-------------0---------0---0--------0--------------0---0-|
|-------------2---------2---2--------2--------------2---2-|
|--3----------3---------3---3--3-----3--------------3---3-|
|
| Gtr II
|  S      +E.    S  S  +S   S  E     E  +S   S     +S   S
|---------------------------------------------------------|
|---------------15------------------15-(15)---------------|
|-14b16==(14)------14r(14)-12-14b16---------14b16-(14)S12-|
|---------------------------------------------------------|
|---------------------------------------------------------|
|---------------------------------------------------------|


  D                                           Am
   E     Q              S S  E Q    S  S        E   Q     S S  E      Q           S   S
|--------2--------------2-2----2----2--2----|-------0-----0-0---------0-----------0---0--|
|--------3--------------3-3----3----3--3----|-------1-----1-1---------1-----------1---1--|
|--------2--------------2-2----2----2--2----|-------2-----2-2---------2-----------2---2--|
|--0-----0--------------0-0--0-0----0--0----|-------2-----2-2---------2-----------2---2--|
|-------------------------------------------|---0---0-----0-0--0------0-----------0---0--|
|-------------------------------------------|--------------------------------------------|
|
|  S  S  S  S  S  S  a  E    Q    E S  S       +E   E  E  E    E      E  +S   S  +S   S
|-------------------------------------------|------15-15-------------15-(15)-------------|
|-12----10----10----10s12--------15---15b17-|-(15)-------15---15b17==15-(15)-15r(15)-12--|
|----12----11----11---------14--------------|--------------------------------------------|
|-------------------------------------------|--------------------------------------------|
|-------------------------------------------|--------------------------------------------|
|-------------------------------------------|--------------------------------------------|


  C
 2/4
   E          Q        S S
|-------------0--------0-0-|
|-------------1--------1-1-|
|-------------0--------0-0-|
|-------------2--------2-2-|
|--3----------3--------3-3-|
|--------------------------|
|
|  S      +E     S   Q
|-------------------15-----|
|-15b17==(15)---15r--------|
|--------------------------|
|--------------------------|
|--------------------------|
|--------------------------|


  G
 4/4
   E Q          S S  E Q     S S    E Q    S S  E Q    S S
|----3----------3-3----3-----3-3-|----3----3-3----3----3-3--|
|----0----------0-0----0-----0-0-|----0----0-0----0----0-0--|
|----0----------0-0----0-----0-0-|----0----0-0----0----0-0--|
|----0----------0-0----0-----0-0-|----0----0-0----0----0-0--|
|----2----------2-2----2-----2-2-|----2----2-2----2----2-2--|
|--3-3----------3-3--3-3-----3-3-|--3-3----3-3--3-3----3-3--|
|
|  Q    +S   S  e    Q    E  E      Q    Q      Q    Q
|-19---(19)-19s20---19---20s19---|-17---19-----15-----------|
|-15---(15)-15s17---15---17s15---|-15---19-----15---15------|
|--------------------------------|------------------16------|
|--------------------------------|--------------------------|
|--------------------------------|--------------------------|
|--------------------------------|--------------------------|


  D
   E     Q         S S E Q             S  S
|--------2---------2-2---2-------------2--2-|
|--------3---------3-3---3-------------3--3-|
|--------2---------2-2---2-------------2--2-|
|--0-----0---------0-0-0-0-------------0--0-|
|-------------------------------------------|
|-------------------------------------------|
|
|  E.       +S   E E   E S    +S  S S +S  S
|-12b14====(12)rs5-7---5--------------------|
|---------------------------------8---------|
|------------------------7b9==(7)---7r(7)-5-|
|-------------------------------------------|
|-------------------------------------------|
|-------------------------------------------|


  Am                                           C
                                              2/4
  E    Q          S S E Q               S  S    E  Q      S S
|------0----------0-0---0---------------0--0-|-----0------0-0-||
|------1----------1-1---1---------------1--1-|-----1------1-1-||
|------2----------2-2---2---------------2--2-|-----0------0-0-||
|------2----------2-2---2---------------2--2-|-----2------2-2-||
|-0----0----------0-0-0-0---------------0--0-|--3--3------3-3-||
|--------------------------------------------|----------------||
|
| E    S S +S   E   S E S    +S  +S  S +S  S    E.    S E E
|--------------------------------------------|----------------||
|------8--------8--------------------------8-|----------8-8---||
|-7b9====7-(7)r-----5-7-7b9==(7)-(7)-7r(7)---|--9-----9-9-9---||
|--------------------------------------------|-10----10-------||
|--------------------------------------------|----------------||
|--------------------------------------------|----------------||


   Flute Solo
                                   1.,2.,3.
    Em                              C
   4/4
    E S S S S S S   E S S S S S S   E S S S S S S E S S S S S S  4x
||----0-0-----0-0-----0-0-----0-0-|---0-0-----0-0---0-0-----0-0--||
||o---0-0-----0-0-----0-0-----0-0-|---1-1-----1-1---1-1-----1-1-o||
||----0-0-----0-0-----0-0-----0-0-|---0-0-----0-0---0-0-----0-0--||
||--------0h2-------------0h2-----|-------0h2-----------0h2------||
||o-------------------------------|-3-------------3-------------o||
||--0---------------0-------------|------------------------------||
|
|   Gtr IV
|   Q     Q         Q     Q         Q     E   E   E E   Q        4x
||--------------------------------|------------------------------||
||o-------------------------------|-----------------------------o||
||--4-----2---------0-------------|---------------0-2---4--------||
||------------------------4-------|-2-----2---4------------------||
||o-------------------------------|-----------------------------o||
||--------------------------------|------------------------------||
|
|   Gtr III
|   Q     Q       a Q     Q         Q     E   E   E E   Q        4x
||--------------------------------|------------------------------||
||o-------------------------------|-----------------------------o||
||--4-----2-----------------------|---------------0-2---4--------||
||----------------2s4-----4-------|-------2---4------------------||
||o-------------------------------|-3---------------------------o||
||--------------------------------|------------------------------||


 4.
                   D.S. al Coda
  C
  E S S S S S S E S S S S  S S
|---0-0-----0-0---0-0------0-0----||
|---1-1-----1-1---1-1------1-1----||
|---0-0-----0-0---0-0------0-0----||
|-------0h2-----------0h2---------||
|-3-------------3-----------------||
|---------------------------------||
|
| Q     E   E   E E   Q
|---------------------------------||
|---------------------------------||
|---------------0-2---4-----------||
|-2-----2---4---------------------||
|---------------------------------||
|---------------------------------||
|
| Q     E   E   E E   S E.
|---------------------------------||
|---------------------------------||
|---------------0-2---2h4---------||
|-------2---4---------------------||
|-3-------------------------------||
|---------------------------------||


  &
  Em                              C
  E S S S S S S   E S S S S S S   E S S S S S S E S S S S S S
|---0-0-----0-0-----0-0-----0-0-|---0-0-----0-0---0-0-----0-0-|
|---0-0-----0-0-----0-0-----0-0-|---1-1-----1-1---1-1-----1-1-|
|---0-0-----0-0-----0-0-----0-0-|---0-0-----0-0---0-0-----0-0-|
|-------0h2-------------0h2-----|-------0h2-----------0h2-----|
|-------------------------------|-3-------------3-------------|
|-0---------------0-------------|-----------------------------|
|
| Gtr IV
| Q     Q         Q     Q         Q     E   E   E E   Q
|-------------------------------|-----------------------------|
|-------------------------------|-----------------------------|
|-4-----2---------0-------------|---------------0-2---4-------|
|-----------------------4-------|-2-----2---4-----------------|
|-------------------------------|-----------------------------|
|-------------------------------|-----------------------------|
|
| Gtr III
| Q     Q       a Q     Q         Q     E   E   E E   Q
|-------------------------------|-----------------------------|
|-------------------------------|-----------------------------|
|-4-----2-----------------------|---------------0-2---4-------|
|---------------2s4-----4-------|-------2---4-----------------|
|-------------------------------|-3---------------------------|
|-------------------------------|-----------------------------|


  Em
  E S S S S S S   E S S S S S S
|---0-0-----0-0-----0-0-----0-0--|
|---0-0-----0-0-----0-0-----0-0--|
|---0-0-----0-0-----0-0-----0-0--|
|-------0h2-------------0h2------|
|--------------------------------|
|-0---------------0--------------|
|
| Q     Q         Q     Q
|--------------------------------|
|--------------------------------|
|-4-----2---------0--------------|
|-----------------------4--------|
|--------------------------------|
|--------------------------------|
|
| Q     Q       a Q     Q
|--------------------------------|
|--------------------------------|
|-4-----2------------------------|
|---------------2s4-----4--------|
|--------------------------------|
|--------------------------------|


                                 4th Verse
  C                               Em         C
  E S S S S S S E S S S S  S S    W          W
|---0-0-----0-0---0-0------0-0-||-0--------|-0----|
|---1-1-----1-1---1-1------1-1-||-0--------|-1----|
|---0-0-----0-0---0-0------0-0-||-0--------|-0----|
|-------0h2-----------0h2------||-2--------|-2----|
|-3-------------3--------------||-2--------|-3----|
|------------------------------||-0--------|------|
|
| Q     E   E   E E   Q           W          W
|------------------------------||----------|------|
|------------------------------||----------|------|
|---------------0-2---4--------||----------|------|
|-2-----2---4------------------||----------|------|
|------------------------------||----------|------|
|------------------------------||----------|------|
|
| Q     E   E   E E   S E.        W          W
|------------------------------||----------|------|
|------------------------------||----------|------|
|---------------0-2---2h4------||----------|------|
|-------2---4------------------||----------|------|
|-3----------------------------||----------|------|
|------------------------------||----------|------|


  Em         C                            Em
  W          W                            W
|-0--------|-0--------------------------|-0--------------------|
|-0--------|-1--------------------------|-0--------------------|
|-0--------|-0--------------------------|-0--------------------|
|-2--------|-2--------------------------|-2--------------------|
|-2--------|-3--------------------------|-2--------------------|
|-0--------|----------------------------|-0--------------------|
|
| Gtr III
| W          Q  S S S S S S S S S S S S   S S S S S S E +H
|----------|----------0-1-3-1-0---0-----|----------------------|
|----------|------1-3-----------3---3-0-|-1-0---0--------------|
|----------|----------------------------|-----2---2-0----------|
|----------|----------------------------|-------------2-(2)----|
|----------|----------------------------|----------------------|
|----------|----------------------------|----------------------|


  C                         Em                C
  W                         W                 W
|-0-----------------------|-0---------------|-0----||
|-1-----------------------|-0---------------|-1----||
|-0-----------------------|-0---------------|-0----||
|-2-----------------------|-2---------------|-2----||
|-3-----------------------|-2---------------|-3----||
|-------------------------|-0---------------|------||
|
| Q  E. S S S S S S S S S   S S Q.   +H       W
|-------------------------|-----------------|------||
|-----------0-1-0---0---0-|-----------------|------||
|-------0-2-------2---2---|-2-0-------------|------||
|-------------------------|-----2----(2)----|------||
|-------------------------|-----------------|------||
|-------------------------|-----------------|------||


 Chorus
  G                   D                   Am
  E Q  S S E Q  S S   E Q  S S E Q  S S   E Q  S S E Q  S S
|---3--3-3---3--3-3-|---2--2-2---2--2-2-|---0--0-0---0--0-0--|
|---0--0-0---0--0-0-|---3--3-3---3--3-3-|---1--1-1---1--1-1--|
|---0--0-0---0--0-0-|---2--2-2---2--2-2-|---2--2-2---2--2-2--|
|---0--0-0---0--0-0-|-0-0--0-0-0-0--0-0-|---2--2-2---2--2-2--|
|---2--2-2---2--2-2-|-------------------|-0-0--0-0-0-0--0-0--|
|-3-3--3-3-3-3--3-3-|-------------------|--------------------|


  C          G
 2/4        4/4
  E Q  S S   E Q  S S E Q  S S   E Q  S S E Q  S S
|---0--0-0-|---3--3-3---3--3-3-|---3--3-3---3--3-3-|
|---1--1-1-|---0--0-0---0--0-0-|---0--0-0---0--0-0-|
|---0--0-0-|---0--0-0---0--0-0-|---0--0-0---0--0-0-|
|---2--2-2-|---0--0-0---0--0-0-|---0--0-0---0--0-0-|
|-3-3--3-3-|---2--2-2---2--2-2-|---2--2-2---2--2-2-|
|----------|-3-3--3-3-3-3--3-3-|-3-3--3-3-3-3--3-3-|


  D                   Am                  C
                                         2/4
  E Q  S S E Q  S S   E Q  S S E Q  S S   E Q  S S
|---2--2-2---2--2-2-|---0--0-0---0--0-0-|---0--0-0-||
|---3--3-3---3--3-3-|---1--1-1---1--1-1-|---1--1-1-||
|---2--2-2---2--2-2-|---2--2-2---2--2-2-|---0--0-0-||
|-0-0--0-0-0-0--0-0-|---2--2-2---2--2-2-|---2--2-2-||
|-------------------|-0-0--0-0-0-0--0-0-|-3-3--3-3-||
|-------------------|-------------------|----------||


 Outro
  Slower Q=92
  Em                    C
 4/4
  W                       W
|-0-------------------|-^-0-------------------|
|-0-------------------|-^-1-------------------|
|-0-------------------|-^-0-------------------|
|-2-------------------|-^-2-------------------|
|-2-------------------|-^-3-------------------|
|-0-------------------|-----------------------|
|
| Gtr II
|     <
|     ~~~~~~~~~~~~~~~~~~~~~~~~~~~~
| Q   Q        +H        +Q     Q   Q   Q
|---------------------|-----------------------|
|----15pb17===(15)----|-(15)r--15--12--15b17--|
|---------------------|-----------------------|
|---------------------|-----------------------|
|---------------------|-----------------------|
|---------------------|-----------------------|


  Freely Q=72
   W                                +W
|-^3-----------------------------|--(3)-----*|
|-^0-----------------------------|--(0)-----*|
|-^0-----------------------------|--(0)-----*|
|-^0-----------------------------|--(0)-----*|
|-^2-----------------------------|--(2)-----*|
|-^3-----------------------------|--(3)-----*|
|
|  E.  +S   Q   S      +E.  +Q      +W
|--------------10-----(10)-(10)--|-(10)-----*|
|-15--(15)s10--10b12==(10)-(10)--|-(10)r----*|
|--------------------------------|----------*|
|--------------------------------|----------*|
|--------------------------------|----------*|
|--------------------------------|----------*|


Duration Legend
---------------
W - whole; H - half; Q - quarter; E - 8th; S - 16th; T - 32nd; X - 64th; a - acciaccatura
+ - note tied to previous; . - note dotted; .. - note double dotted
Uncapitalized letters represent notes that are staccato (1/2 duration)
Irregular groupings are notated above the duration line
Duration letters will always appear directly above the note/fret number it represents the
duration for.  Duration letters with no fret number below them represent rests.  Multi-
bar rests are notated in the form Wxn, where n is the number of bars to rest for.  Low
melody durations appear below the staff

Tablature Legend
----------------
 h   - hammer-on
 p   - pull-off
 b   - bend
 pb  - pre-bend
 r   - bend release (if no number after the r, then release immediately)
 /\  - slide into or out of (from/to "nowhere")
 s   - legato slide
 S   - shift slide
  - natural harmonic
[n]  - artificial harmonic
n(n) - tapped harmonic
 ~   - vibrato
 tr  - trill
 T   - tap
 TP  - trem. picking
 PM  - palm muting
\n/  - tremolo bar dip; n = amount to dip
 \n  - tremolo bar down
 n/  - tremolo bar up
/n\  - tremolo bar inverted dip
 =   - hold bend; also acts as connecting device for hammers/pulls
 <>  - volume swell (louder/softer)
 x   - on rhythm slash represents muted slash
 o   - on rhythm slash represents single note slash

Misc Legend
-----------
 |  - bar
||  - double bar
||o - repeat start
o|| - repeat end
*|  - double bar (ending)
 :  - bar (freetime)
 $  - Segno
 &  - Coda
Tempo markers -  = BPM(8/16=s8/s16), where s8 = swing 8ths, s16 = swing 16ths



Took my fam'ly away from my Carolina home
Had dreams about the West and started to roam
Six long months on a dust covered trail
They say heaven's at the end but so far it's been hell
And there's fire on the mountain, lightnin' in the air
Gold in them hills and it's waitin' for me there

We were diggin' and siftin' from five to five
Sellin' everything we found just to stay alive
Gold flowed free like the whiskey in the bars
Sinnin' was the big thing, lord and Satan was his star
And there's fire on the mountain, lightnin' in the air
Gold in them hills and it's waitin' for me there

Dance hall girls were the evenin' treat
Empty cartridges and blood lined the gutters of the street
Men were shot down for the sake of fun
Or just to hear the noise of their forty-four guns
And there's fire on the mountain, lightnin' in the air
Gold in them hills and it's waitin' for me there

Now my widow she weeps by my grave
Tears flow free for her man she couldn't save
Shot down in cold blood by a gun that carried fame
All for a useless and no good worthless claim

And there's fire on the mountain, lightnin' in the air
Gold in them hills and it's waitin' for me there
Fire on the mountain, lightnin' in the air
Gold in them hills and it's waitin' for me there
Waitin' for me there

Publisher Spirit Music Company (Bmi)
Suggest correction
Give kudos to tab author, rate the tab!
1 2 3 4 5
comments
print report bad tab
guest
You may want to rate the tab now too:
select rating
Wanna post a correction for this tab? Suggest correction