Oops, an error
Loading. Please wait.

Explosions Tab

703 views 1 this week
no commentswrite comment
1 2 3 4 5
3 more votes to show rating
add to favorites
launch autoscroll
font size
0
reset
how to read this tab
guitar tuner
Autoscroll
slow
fast
+/-
esc
set tempo
stop
Help us to improve Ultimate-Guitar.com Take our survey!
×
Author
Difficulty
novice
-------------------------------------------------------------------------------
                             Explosions - The Mary Onettes   http://www.themaryonettes.net/
-------------------------------------------------------------------------------
Tabbed by: tunaktunaktu
Email: blue_halo_clock12@hotmail.com

Tuning: Standard EADGBE

riff for the verse (and at the beginnin):
e--------10----------------10-----------|
B-12----------(x4)--13---------(x4)-----| repeat dat
G-----0------0----------0-----0---------|
D---------------------------------------|
A---------------------------------------|
E---------------------------------------|

power chords or normal chords: G, C, G, C

then the chorus where it goes "and it can make your heart stop"
riff is:
e|------0--------0-------0---------------------------------------------------------|
B|--8--------8-------8-------7-8-10 (however many times as needed------------------|
G|----0----0---0---0---0---0-------------------------------------------------------|
D|---------------------------------------------------------------------------------|
A|---------------------------------------------------------------------------------|
E|---------------------------------------------------------------------------------|
normal or power chords: Em, C, Em, C, Em, C, D

the rest of the song is still just that, but like more repitions and different orders, 
can figure it out
Suggest correction
Give kudos to tab author, rate the tab!
1 2 3 4 5
comments
print report bad tab
guest
You may want to rate the tab now too:
select rating
Wanna post a correction for this tab? Suggest correction