Oops, an error
Loading. Please wait.

Dance The Night Away Bass Tab

version 1
version 1

Whole song

Interactive

6,936 views 24 this week
1 commentread comment
1 2 3 4 5
please rate
add to favorites
launch autoscroll
font size
0
reset
guitar tuner
Tab Pro tools
  • play this tab
  • loop segment
  • change instrument
  • show fretboard
  • metronome
×
Best way to learn
"Dance The Night Away"
Autoscroll
slow
fast
+/-
esc
set tempo
stop
Contributor
Difficulty
novice
Mavericks - Dance The Night Away

Not suprised there's no tab for this, its so easy you
don't really need one. Here it is anyway, enjoy.

It's just 2 chords in the entire song, E and B, so the
bass just plays this throughout.

G-------------------------|
D---6-9-6-----------------|
A-7-------(9)---6-9-6-----|
E-------------7-------(7)-|

*Notes in brackets are not played on the record, but if
you want to throw them in for the fun of it, just play
the note before it, and the note itself, twice as fast
as the rest.

Ending

G-------------------------|
D-------------------------|
A-7-7-7-7-7-7-------------| x 2
E-------------7-7-7-7-7-7-|

G-------------------------|
D-------------------------|
A-7-7-7-7-7-7--7-7-7-7----|
E-------------------------|

And thats it! Really fun song to play, especially since
its so easy.
comments
We did not receive enough feedback on this tab! Please rate:
print report bad tab
1 2 3 4 5
1 comment total.
0 reply
ebotron wrote on August 27 2011, 10:02 am

Nice tab mate, but there is a slight variation that he throws in sometimes when leading into the chorus, this is what I think he does:

G-------------------------|
D---6-9-6-----------------|
A-7-----------------6-----|
E-------------7-7-9-------|

I want to post or [tab]
guest
You may want to rate the tab now too:
select rating
Please do not post tabs as comments. Select "correction" instead!