Oops, an error
Loading. Please wait.

Here Comes The Rain bass

55 views 6 this week
no commentswrite comment
1 2 3 4 5
3 more votes to show rating
add to favorites
×
Save as Personal and add changes to this tab that will be seen only by you. Learn more ›
×
You can save this tab as Personal to edit and correct it or add notes. All changes will be seen only by you. Learn more »
launch autoscroll
font size
0
reset
guitar tuner
edit
Autoscroll
slow
fast
+/-
esc
set tempo
stop
Author
Here Comes The Rain
Single release by The Mavericks taken from their album Music for all 
Occasions in 1995. Reached #4 in Canada Country Chart. 
Bass performance Robert Reynolds. Tab by bass50611. Great Country &
Western song so welcome to my tab Not exact but very close to original
Listen to the bass rhythm for the hammer on. Symbol ‘.’ Are pause dots

Intro:
G|--------------|-----------------4-5-----------------4-5-|
D|-GUITAR START-|------------5--7----------------5--7-----|
A|--------------|--5--5-5-h7-----------5--5-5-h7----------|
E|--------------|-----------------------------------------|

Verse 1:
G|---------------------------------------------------------------------|
D|---------------------------------------------------------------------|
A|-5--5-5-----------------------------5--5-5---------------------------|
E|----------2--2-2---3--3-3---5--5-5----------2--2-2---3--3-3---5--5-5-|

G|---------------------------|
D|---------------------------|
A|-2--2-2----------5--5-5----|
E|---------3--3-3----------5-|

Chorus:
G|---------------------------------------------------------------------|
D|---------------------------------------------------------------------|
A|----------5--5-5-h7--------5--5-5-h7---------5--5-5-4-2--2-2---------|
E|-5--5--5------------3--3-3-----------3--3-3-------------------0--0-0-|

G|---------------------------------------------------------------------|
D|---------------------------------------------------------------------|
A|---------5--5-5-h7---------5--5-5-h7---------5--5-5-4-2--2-2---------|
E|-5--5-5------------3--3-3------------3--3-3-------------------0--0-0-|

G|-------------|
D|-------------|
A|-------------|
E|-5---5--5--5-|

Interlude 1:
  ‘.’     ‘.’       ‘.’    
G|------------------------------12-12-11-12-11-|
D|---------------------------------------------|
A|-5-------10---------------10-----------------|
E|------------------10-------------------------|

Verse 2:
G|------------------------------------------------------------------------|
D|------------------------------------------------------------------------|
A|---------------------------------------5--5-5---------------------------|
E|-10--10-10---2--2-2---3--3-3---5--5-5----------2--2-2---3--3-3---5--5-5-|

G|---------------------------|
D|---------------------------|
A|-2--2-2----------5--5-5----|
E|---------3--3-3----------5-|

Chorus:
G|---------------------------------------------------------------------|
D|---------------------------------------------------------------------|
A|----------5--5-5-h7--------5--5-5-h7---------5--5-5-4-2--2-2---------|
E|-5--5--5------------3--3-3-----------3--3-3-------------------0--0-0-|

G|---------------------------------------------------------------------|
D|---------------------------------------------------------------------|
A|---------5--5-5-h7---------5--5-5-h7---------5--5-5-4-2--2-2---------|
E|-5--5-5------------3--3-3------------3--3-3-------------------0--0-0-|

G|-------------|
D|-------------|
A|-------------|
E|-5---5--5--5-|

Interlude 2:
G|----------------------------------------------------------------|
D|----------------------------------------------------------------|
A|-5--5-5----------5--5-5----------5--5-5-h7---------7--7-7-------|
E|---------3--3-3----------3--3-3------------7--7-7----------5--5-|

Chorus:
G|--------------------------------------------------------------------|
D|--------------------------------------------------------------------|
A|----------5--5-5-h7--------5--5-5-h7--------5--5-5-4-2--2-2---------|
E|-5--5--5------------3--3-3----------3--3-3-------------------0--0-0-|

G|---------------------------------------------------------------------|
D|---------------------------------------------------------------------|
A|---------5--5-5-h7---------5--5-5-h7---------5--5-5-4-2--2-2---------|
E|-5--5-5------------3--3-3------------3--3-3-------------------0--0-0-|

G|-------------|
D|-------------|
A|-------------|
E|-5---5--5--5-|

Outro:                                               (Repeat To Fade/End)
G|---------------------------------------------------------------------|
D|---------------------------------------------------------------------|
A|-5--5-5-h7---------5--5-5-h7--------5--5-5----------5--5-5-----------|
E|-----------3--3-3-----------3--3-3----------3--3-3----------3--3-3-3-|

Symbol ‘.’ Are Pause Dots
Symbol h are hammer on notes.



(Raul Malo/Kostas)

Your love's a heartache
That's torn me apart
You've watched my heart break
Right from the start
You took everything you wanted
And now that you are gone

Here comes the rain
Falling down on me
I'm showered in pain
Nothing remains
Of what used to be

Here comes the night
Dark as my soul
There's no end in sight
No shining light
No love to hold
Here comes the rain

I must have been dreaming
I must have been blind
But I never thought you
Could be so unkind
Tomorrow I'll forget you
But I can't forget you now

Here comes the rain
Falling down on me
I'm showered in pain
Nothing remains
Of what used to be

Here comes the night
Dark as my soul
There's no end in sight
No shining light
No love to hold
Here comes the rain

Here comes the rain
Falling down on me
I'm showered in pain
Nothing remains
Of what used to be

Here comes the night
Dark as my soul
There's no end in sight
No shining light
No love to hold
Here comes the rain

            
            
Suggest correction
Creating personal tab
Creating personal tab
You can edit any tab online and save it as your Personal.

You can edit, replace or remove any tab part or add personal notes – all changes will be seen only by you.

Personal tabs can be accessed anytime from any device, even offline.
Learn more »
Give kudos to tab author, rate the tab!
1 2 3 4 5
comments
print report bad tab
guest
You may want to rate the tab now too:
select rating
Wanna post a correction for this tab? Suggest correction