Oops, an error
Loading. Please wait.

Oh What A Thrill bass

25 views 1 this week
no commentswrite comment
1 2 3 4 5
3 more votes to show rating
add to favorites
×
Save as Personal and add changes to this tab that will be seen only by you. Learn more ›
×
You can save this tab as Personal to edit and correct it or add notes. All changes will be seen only by you. Learn more »
launch autoscroll
font size
0
reset
guitar tuner
edit
Autoscroll
slow
fast
+/-
esc
set tempo
stop
Author
Oh What A Thrill
Track by The Mavericks taken from their album What A Crying Shame in 1994.
Bass performance Robert Reynolds. Tab by bass50611. Great country and
Western track and easy to play.  More or less as per original recording.

Intro:
G|-----------------------------------|
D|-----------------------------------|
A|------7--------7--------7--------7-|
E|-5--5-----5--5-----5--5-----5--5---|

Verse 1:                     (Play This Bit x3)
G|--------------------------------------|
D|--------------------------------------|
A|------7-------------------4-------4---|
E|-5--5-----5--5-5--4--2--2----2--2---2-|

G|------------------------------------------------------------------|
D|------4-------------2--2----2--2---2------------------------------|
A|-2--2----2--2---2--------2-------2----------7-------------------4-|
E|--------------2------------------------5--5-----5--5-5--4--2--2---|

                                           (Break)
G|-------------------------------------------|
D|------------------------------2--2----2--2-|
A|------4----2--2----2--2---2--------2-------|
E|-2--2---2-------2-------2------------------|

Chorus:
  ‘.’                            ‘.’
G|---------------------------------------------------------|
D|---------------------------------------------------------|
A|-0------7--7------7--7---7---0--0------7--7----7---7---7-|
E|-------------7---------7--------------------7--------7---|

Interlude:
G|---------------------------------------|
D|---------------------------------------|
A|------7--------7-7--------7--------7-7-|
E|-5--5-----5--5-------5--5-----5--5-----|

Verse 2:                     (Play This Bit x3)
G|--------------------------------------|
D|--------------------------------------|
A|------7--------7----------4-------4---|
E|-5--5-----5--5---5---2--2----2--2---2-|

G|-----------------------------------------------------------------|
D|------4-------4-----2--2----2--2---2-----------------------------|
A|-2--2----2--2---2--------2-------2----------7--------7-7-------4-|
E|---------------------------------------5--5-----5--5------2--2---|

                                           (Break)
G|-------------------------------------------|
D|----------------4-------4-----2--2----2--2-|
A|------4----2--2----2--2---2--------2-------|
E|-2--2---2----------------------------------|

Chorus:
  ‘.’                            ‘.’
G|---------------------------------------------------------|
D|---------------------------------------------------------|
A|-0------7--7------7--7---7---0--0------7--7----7---7---7-|
E|-------------7---------7--------------------7--------7---|

Outro:                         (Repeat To Fade/End)
G|---------------------------------------|
D|---------------------------------------|
A|------7--------7-7--------7--------7-7-|
E|-5--5-----5--5-------5--5-----5--5-----|

Symbol '.' Rre Pauses
Suggest correction
Creating personal tab
Creating personal tab
You can edit any tab online and save it as your Personal.

You can edit, replace or remove any tab part or add personal notes – all changes will be seen only by you.

Personal tabs can be accessed anytime from any device, even offline.
Learn more »
Give kudos to tab author, rate the tab!
1 2 3 4 5
comments
print report bad tab
guest
You may want to rate the tab now too:
select rating
Wanna post a correction for this tab? Suggest correction