Oops, an error
Loading. Please wait.

Fly On A Dog Tab

556 views 3 this week
no commentswrite comment
1 2 3 4 5
please rate
add to favorites
launch autoscroll
font size
0
reset
how to read this tab
guitar tuner
Tab Pro tools
  • play this tab
  • loop segment
  • change instrument
  • show fretboard
  • metronome
×
Best way to learn
"Fly On A Dog"
Autoscroll
slow
fast
+/-
esc
set tempo
stop
Contributor
Difficulty
intermediate
My first time tabbing a whole song (an actual song, too, not just video game tablature).
This is only the lead guitar from Fly on a Dog by The Megas.
I'm 95% sure it's all right. If something's wrong, please let me know!
*Note: I had some errors carrying over the tab so let me know
if there are any formatting errors as well. It all looks good on my end.
Enjoy!

Verse 1
-----------------------------------------------|
-----------------------------------------------|
----6-8-8-----6-8-8--6-8-11-10-6-6-------------|
-----------------------------------------------|
-----------------------------------------------|
-----------------------------------------------|

-----------------------------------------------------------------------|
-----------------------------------------------------------------------|
----6-8-8-----6-8-8--6-8-11-10-6-6---8-8-8-6-6-6-4-4-4-3-3-3-1---------|
-----------------------------------------------------------------------|
-----------------------------------------------------------------------|
-----------------------------------------------------------------------|

Chorus Parts 1 & 2
------------------------|
--------7---------------|
----------8-6-----------|
------------------------| x7
------------------------|
------------------------|

Played the eight time instead of ^. Then, repeat.
-------------------------------|
--------------6h7h6------------|
------------8-------8-6--------|
-------------------------------|
-------------------------------|
-------------------------------|

Interlude
----------------------------------------------|
----7-9-11-12-11-9-7--------------------------|
----------------------------------------------|
---------------------------4---1-1-3-1-3-1----|
----------------------------------------------|
----------------------------------------------|

Verse 2
------------------------|
--------7---------------|
----------8-6-----------|
------------------------|
------------------------|
------------------------|

Verse 3
-----------------------------------------------|
-----------------------------------------------|
----6-8-8-----6-8-8--6-8-11-10-6-6-------------|
-----------------------------------------------|
-----------------------------------------------|
-----------------------------------------------|

-----------------------------------------------------------------------|
-----------------------------------------------------------------------|
----6-8-8-----6-8-8--6-8-11-10-6-6---8-8-8-6-6-6-4-4-4-3-3-3-1---------|
-----------------------------------------------------------------------|
-----------------------------------------------------------------------|
-----------------------------------------------------------------------|

----------------------------|
----12-11---11-12-11-9-9----|
----------------------------|
----------------------------|  x2
----------------------------|
----------------------------|

                x3                                      3rd Time End on This
------------------------------|----------------------|
------------------------------|----------------------|
----13-13-11-13---11-13-------|-11-13-13-11----------|
----------------13------------|-------------13-11----|
------------------------------|----------------------|
------------------------------|----------------------|

Chorus Parts 1 & 2
------------------------|
--------7---------------|
----------8-6-----------|
------------------------| x7
------------------------|
------------------------|

Played the eight time instead of ^. Then, repeat.
-------------------------------|
--------------6h7h6------------|
------------8-------8-6--------|
-------------------------------|
-------------------------------|
-------------------------------|

----------------------------|
----7-9-11-12-11-9-7--------|
----------------------------|
----------------------------|
----------------------------|
----------------------------|

Solo
----------------------------------------------------------------|
----------------------------------------------------------------|
--13-13-11-13-16-15-11-13-13----11-13-13-11-13-16-15-11-13------|
------------------------------13--------------------------------|
----------------------------------------------------------------|
----------------------------------------------------------------|

--------------------11-19-18-14-16-11-16-14-9h11---|
-12-14-16-14h12------------------------------------|
-----------------13--------------------------------|
---------------------------------------------------|
---------------------------------------------------|
---------------------------------------------------|

---------------------|----------------------|
-9-11-11s12-11-9-7---|-12--11--9------------| 2nd Time, End on This
---------------------|----------------------|
---------------------|----------------------|
---------------------|----------------------|
---------------------|----------------------|
comments
We did not receive enough feedback on this tab! Please rate:
print report bad tab
1 2 3 4 5
I want to post or [tab]
guest
You may want to rate the tab now too:
select rating
Please do not post tabs as comments. Select "correction" instead!