Oops, an error
Loading. Please wait.

After The Party intro tab

1,144 views 60 this week
1 commentread comment
1 2 3 4 5
1 last vote to show rating
add to favorites
×
Save as Personal and add changes to this tab that will be seen only by you. Learn more ›
×
You can save this tab as Personal to edit and correct it or add notes. All changes will be seen only by you. Learn more »
launch autoscroll
font size
0
reset
how to read this tab
guitar tuner
edit
Autoscroll
slow
fast
+/-
esc
set tempo
stop
  |       Bm         |       G           |      Bm          | G* |
d#|--------------------------------------|-----------------------|
A#|---------7-77-7-5-----------7-77-7-5--|---------7-77-7-5------|
F#|---------7-77-7-7-----------7-77-7-7--|---------7-77-7-7---4~-|
C#|-----0~--0-00-0-0-------0~--0-00-0-0--|-----0~--0-00-0-0---0~-| ~ = let ring
G#|--2-----------------------------------|--2-----------------5~-|
D#|--------------------3-3---------------|--------------------3~-|

  |       Bm         |       G           |      Bm          |       G           |
d#|--------------------------------------|--------------------------------------|
A#|---------7-77-7-5-----------7-77-7-5--|---------7-77-7-5-----------7-77-7-5--|
F#|---------7-77-7-7-----------7-77-7-7--|---------7-77-7-7-----------7-77-7-7--|
C#|-----0~--0-00-0-0-------0~--0-00-0-0--|-----0~--0-00-0-0-------0~--0-00-0-0--|
G#|--2-----------------------------------|--2-----------------------------------|
D#|--------------------3-3---------------|--------------------3-3---------------|

  |<-------------D*-------------->|
d#|-------------------------------|
F#|-7*--7*--7*--7*--7*--7*--7-7-7-| each * denotes a slight bend up
A#|-5---5---5---5---5---5---5-5-5-| which amounts to around half a fret
C#|-0---0---0---0---0---0---0-0-0-| in my estimation
G#|-------------------------------|
D#|-------------------------------|

These riffs are recurring throughout the song.

I think TheUpsides1337 did a good job with the chords which can be found here:
https://tabs.ultimate-guitar.com/t/the_menzingers/after_the_party_crd.htm

From this I reckon you'll be able to piece the song together.

            
            
Suggest correction
Creating personal tab
Creating personal tab
You can edit any tab online and save it as your Personal.

You can edit, replace or remove any tab part or add personal notes – all changes will be seen only by you.

Personal tabs can be accessed anytime from any device, even offline.
Learn more »
Give kudos to tab author, rate the tab!
1 2 3 4 5
comments
print report bad tab
1 comment total.
0 reply
Bavny 365 May 22, 2017 12:43 AM

"Mindsweeper666":
[...] think that the 4 on the C# string needs to be changed to 0 [...]

"Bavny"-Myself:
I suppose you mean changing the
C#|-----4~- C#|-----0~-
G#|--2----- to G#|--2------ and so on for the other instances.

I agree that my transcription isn't spot on there but yours doesn't sound right to me as well. If the guitar was tuned down another half step I would make it a F|-----0~- C|-----5~- G|--3-----

Thanks for your suggestion anyway! I'll copy this to the comment section of the actual tab, so it might help people to come up with their improvements.

guest
You may want to rate the tab now too:
select rating
Wanna post a correction for this tab? Suggest correction