Oops, an error
Loading. Please wait.

I Dont Wanna Be An Asshole Anymore Tab

11,035 views 36 this week
3 commentsread comments
1 2 3 4 5
x 7
add to favorites
launch autoscroll
font size
0
reset
how to read this tab
guitar tuner
Autoscroll
slow
fast
+/-
esc
set tempo
stop
Author
Difficulty
Tuning
intermediate
D# G# C# F# A# D#
-------------------------------------------------------------------------------
            I DONT WANNA BE AN ASSHOLE ANYMORE - The Menzingers
-------------------------------------------------------------------------------

Tuning: Half-step down

Intro:

eb|-0--0000000--000--000--00000000-0-0-0-0-0-0-0--|
Bb|-4/55555554/5554/5554/555555555/12121212121212-|
Gb|-----------------------------------------------|
Db|-----------------------------------------------|
Ab|-----------------------------------------------|
Eb|-----------------------------------------------|

eb|-0--0000000--000--000--00000000-0-0-0-0-0-0-0--|
Bb|-4/55555554/5554/5554/555555555/12121212121212-|
Gb|-----------------------------------------------|
Db|-----------------------------------------------|
Ab|-----------------------------------------------|
Eb|-----------------------------------------------|
  |                                               |
eb|-----------------------------------------------|
Bb|-----------------------------------------------|
Gb|-----------------------------------------------|
Db|-2--------7-----6-----4------------------------|
Ab|-2--------7-----7-----4------------------------|
Eb|-0--------5-----4-----2---------2^-------------|

eb|-0--0000000--000--000--00000000-0-0-0-0-0-0-0--|
Bb|-4/55555554/5554/5554/555555555/12121212121212-|
Gb|-----------------------------------------------|
Db|-----------------------------------------------|
Ab|-----------------------------------------------|
Eb|-----------------------------------------------|        x3
  |                                               |
eb|-----------------------------------------------|
Bb|-----------------------------------------------|
Gb|-----------------------------------------------|
Db|-2--------7-----6-----4------------------------|
Ab|-2--------7-----7-----4--------4---4---4---4---|
Eb|-0--------5-----4-----2--------2---4---2---4---|

Verse:

eb|------------------------------------------------------------------|
Bb|------------------------------------------------------------------|
Gb|------------------------------------------------------------------|
Db|-99999999--------66666666--------99999999-------------------------|
Ab|-7777777777777777444444447777777777777777777777779999999999999999-|
Eb|---------55555555--------55555555--------555555557777777777777777-|
    pm..............................................................

eb|------------------------------------------------------------------|------|
Bb|------------------------------------------------------------------|------|
Gb|------------------------------------------------------------------|------|
Db|-99999999--------66666666--------99999999-------------------------|-7----|
Ab|-7777777777777777444444447777777777777777777777779999999999999999-|-7----|
Eb|---------55555555--------55555555--------555555557777777777777777-|-5----|
            pm......        ........        .....................

Chorus:

eb|-----------------------------------|
Bb|-----------------------------------|
Gb|-999999999999999966666666----------|
Db|-99999999999999996666666677777777--|
Ab|-77777777777777774444444477777777--|
Eb|-------------------------55555555--|      x4
  |                                   |
eb|-----------------------------------|
Bb|-5555555544444444------------------|
Gb|-444444444444444466666666----------|
Db|-----------------6666666677777777--|
Ab|-----------------4444444477777777--|
Eb|-------------------------55555555--|


Repeat Intro, Verse


Pre-Chorus:
eb|------------------------------------------------------|
Bb|------------------------------------------------------|
Gb|------------------------------------------------------|
Db|-7-----------7------------7---------------------7-7-7-|
Ab|-7-----------7------------7-----------7-7-7-7-7-7-7-7-|
Eb|-5-----------5------------5-----------5-5-5-5-5-5-5-5-|
                                         pm. . . . .

Chorus:
                                                                      Triplet
                                                                       | | |
eb|-----------------------------------|--|-----------------------------------|
Bb|-----------------------------------|--|-----------------------------------|
Gb|-999999999999999966666666----------|x4|-----------------------------------|
Db|-99999999999999996666666677777777--|--|-777777777777777777777777777-7-6-4-|
Ab|-77777777777777774444444477777777--|--|-777777777777777777777777777-7-6-4-|
Eb|-------------------------55555555--|--|-555555555555555555555555555-5-4-2-|     
  |                                   |  |                                   |
eb|-----------------------------------|--|-----------------------------------|
Bb|-5555555544444444------------------|--|-----------------------------------|
Gb|-444444444444444466666666----------|x4|-----------------------------------|
Db|-----------------6666666677777777--|--|-777777777777777777777777777-7-6-4-|
Ab|-----------------4444444477777777--|--|-777777777777777777777777777-7-6-4-|
Eb|-------------------------55555555--|--|-555555555555555555555555555-5-4-2-|


Outro:

eb|-----------------------------------------------|
Bb|-----------------------------------------------|
Gb|-----------------------------------------------| x2
Db|-2--------7-----6-----4------------------------|
Ab|-2--------7-----7-----4--------4---4---4---4---|
Eb|-0--------5-----4-----2--------2---4---2---4---|

eb|-----------------------------------|
Bb|-----------------------------------|
Gb|-66666666--------------------------|
Db|-66666666222277779999999999999999--|
Ab|-44444444222277779999999999999999--|
Eb|---------000055557777777777777777--|

eb|-----------------------------------------------|
Bb|-----------------------------------------------|
Gb|-----------------------------------------------|
Db|-2--------7-----6-----4------------------------|
Ab|-2--------7-----7-----4--------4---4---4---4---|
Eb|-0--------5-----4-----2--------2---4---2---4---|


eb|-0--0000000--000--000--00000000-0-0-0-0-0-0-0--|
Bb|-4/55555554/5554/5554/555555555/12121212121212-|
Gb|-----------------------------------------------|
Db|-----------------------------------------------|
Ab|-----------------------------------------------|
Eb|-----------------------------------------------|
  |                                               |
eb|-----------------------------------------------|
Bb|-----------------------------------------------|
Gb|-----------------------------------------------|
Db|-2--------7-----6-----4------------------------|
Ab|-2--------7-----7-----4------------------------|
Eb|-0--------5-----4-----2---------2^-------------|

eb|-0--0000000--000--000--00000000-0-0-0-0-0-0-0--|----|
Bb|-4/55555554/5554/5554/555555555/12121212121212-|----|
Gb|-----------------------------------------------|----|
Db|-----------------------------------------------|----|
Ab|-----------------------------------------------|----|
Eb|-----------------------------------------------|----|
  |                                               |    |
eb|-----------------------------------------------|----|
Bb|-----------------------------------------------|----|
Gb|-----------------------------------------------|----|
Db|-2--------7-----6-----4------------------------|----|
Ab|-2--------7-----7-----4----------------7--6--4-|-2--|
Eb|-0--------5-----4-----2----------------5--4--2-|-0--|


************************************

| /   slide up
| \   slide down
| h   hammer-on
| p   pull-off
| ~   vibrato
| +   harmonic
| x   Mute note
| b   Bend
| pb  Pre-bend
| br  Bend release
| pbr Pre-bend release
| brb Bend release bend

************************************
Suggest correction
comments
print report bad tab
3 comments total.
0 reply
skavoovee 107 Apr 23, 2014 02:00 PM

I'm not saying you're wrong, but I cannot at all hear that 2nd guitar part in the chorus.

guest
You may want to rate the tab now too:
select rating
Wanna post a correction for this tab? Suggest correction