Oops, an error
Loading. Please wait.

Oh No You Didnt Bass Tab

version 1
version 1

Whole song

Interactive

592 views 1 this week
no commentswrite comment
1 2 3 4 5
please rate
add to favorites
launch autoscroll
font size
0
reset
guitar tuner
Autoscroll
slow
fast
+/-
esc
set tempo
stop
Help us to improve Ultimate-Guitar.com Take our survey!
×
Author
This is from the intro to the end of the first verse so yea it's my first tab by the way.

 Intro:
 G|------------------|
 D|--4---7---9---5---|
 A|------------------|
 E|------------------|

 Verse:
 G|----7--7---6--6----4--4-------------|
 D|--0------------------------5--5-----|
 A|---------0-------2------------------|
 E|-------------------------3----------|

 Play the verse four times; I don't know the chorus yet, but the verses are the same.
 I did my best yay me.
Suggest correction
Give kudos to tab author, rate the tab!
1 2 3 4 5
comments
print report bad tab
guest
You may want to rate the tab now too:
select rating
Wanna post a correction for this tab? Suggest correction