Oops, an error
Loading. Please wait.

Oh No You Didnt Tab

version 1
version 1

Whole song

Interactive

6,775 views 1 this week
2 commentsread comments
1 2 3 4 5
excellent!
x 1
add to favorites
launch autoscroll
font size
0
reset
how to read this tab
guitar tuner
Tab Pro tools
  • play this tab
  • loop segment
  • change instrument
  • show fretboard
  • metronome
Autoscroll
slow
fast
+/-
esc
set tempo
stop
Contributor
Artist: Mercenaries 2 Choir
Title: Oh No You Didn't

Tabbed by Nick

This may not be completely correct, but it sounds pretty good to me.

The intro is played like this:
     D            A            E            G  
e|---2------------0-------------------------3----|
B|---3------------2-------------------------0----|
G|---2------------2------------1------------0----|
D|---0------------2------------2------------0----|
A|-----------------------------2------------2----|
E|-----------------------------0------------3----|
  Oh no....... Oh No....... oh NO..(yo yo yo)...


The rest is played like this:
     D            A            E            G  
e|-----------------------------------------------------|
B|-----------------------------------------------------|
G|------7-----7------6----6-------8----8-------4----4--|
D|------7-----7------7----7-------9----9-------5----5--|
A|---5--------5------7----7-------9----9-------5----5--|
E|----------------5-------5----7-------7----3-------3--|



   D      A      E         G
Oh no, Oh no, Oh no (Yo Yo Yo)   

          D                       A  
Oh no you didn't. Sucker tried to play me

              E              G
But you never paid me, Neva.       

          D                     A      
Oh no you didn't. Payback is a' coming 

            E                G 
You will be runnin', foreva     

          D                      A
Oh no you didn't. Until i get me vengeance 

             E                 G
I will never end this mayhem          

          D                  A
Oh no you didn't. I'm a mercenary 

                E                       G A D              A                 D**
You ain't got a prayer, you owe MEEEEEE     (Mercenaries 2.  Rated T for teen)

**Played like this:
   G     A      D       A       D
e|--------------2----|--0-------2-----|
B|--------------3----|--2-------3-----|
G|----4-----6---2----|--2-------2-----|
D|----5-----7---0----|--2-------0-----|
A|----5-----7--------|--0-------------|
E|-3-----5-----------|----------------|
comments
We did not receive enough feedback on this tab! Please rate:
print report bad tab
1 2 3 4 5
2 comments total.
0 reply
turbina wrote on August 31 2008, 06:14 pm

It's a nice song, ain't it? You can get the full version in the webpage of the game.

One thing, instead of an E major, it might be a B minor. But i know squat.

0 reply
Teh Wheelz wrote on September 14 2008, 09:15 pm

OH NO YO DI'INT.

I want to post or [tab]
guest
You may want to rate the tab now too:
select rating
Please do not post tabs as comments. Select "correction" instead!