Oops, an error
Loading. Please wait.

Oh No You Didnt Tab

version 2
version 2

Whole song

Interactive

5,709 views 1 this week
4 commentsread comments
1 2 3 4 5
x 5
add to favorites
launch autoscroll
font size
0
reset
how to read this tab
guitar tuner
Autoscroll
slow
fast
+/-
esc
set tempo
stop
Help us to improve Ultimate-Guitar.com Take our survey!
×
Author
Difficulty
intermediate
-------------------------------------------------------------------------------
                OH NO YOU DIDN'T - The Mercenaries 2 Choir
-------------------------------------------------------------------------------
Tabbed by: Zach (BlaznBlue@ultimate-guitar.com)
Email:

Tuning: Standard

I couldn't find a tab that was just right so I made my own. Please rate.


INTRO:


     D        A           Bm       G
     Oh No    Oh No       Oh No       Oh no you didn't
e||--2--------0--------|--2--------3--------|
B||--3--------2--------|--3--------0--------|
G||--2--------2--------|--4--------0--------|
D||--0--------2--------|--4--------0--------|
A||-----------0--------|--2--------2--------|
E||--------------------|-----------3--------|


VERSE:

This is the part played during the verse.
D             A              Bm          G

-----2-----2--------------|-----2-----2-----3-----3--|
-----3-----3------2-----2-|-----3-----3-----0-----0--|
-----2-----2-----2-----2--|-----4-----4-----0-----0--|
--0--------------2-----2--|-----4-----4-----0-----0--|
--------------0-----------|--2--------------2-----2--|
--------------------------|--------------3-----------|

     Sucka tried to play me but you never paid me never    oh no you didn't
-----2-----2-----------------------------------2--2---------3-----3----|
-----3-----3-----------2------------2----------3--3---------0-----0----|
-----2-----2-----------2------------2----------4--4---------0-----0----|
--0--------------------2------------2----------4--4---------0-----0----|
--------------------0---------------------2-----------------2-----2----|
---------------------------------------------------------3-------------|

     Payback is a  comin'   you will be runnin'   forever   oh no you didn't
-----2-----2-----------------------------------2--2---------3-----3----|
-----3-----3-----------2------------2----------3--3---------0-----0----|
-----2-----2-----------2------------2----------4--4---------0-----0----|
--0--------------------2------------2----------4--4---------0-----0----|
--------------------0-------------------2-------------------2-----2----|
---------------------------------------------------------3-------------|

    Until I get my vengeance i will never end this mayhem    oh no you didn't
-----2------2----------------------------------2---2----------3-----3--|
-----3------3--------2--------------2----------3---3----------0-----0--|
-----2------2--------2--------------2----------4---4----------0-----0--|
--0------------------2--------------2----------4---4----------0-----0--|
-----------------0------------------------2-------------------2-----2--|
----------------------------------------------------------3------------|


    I'm a mercenary you ain't got a prayer you owe me        oh no you didn't
-----2-----2-------------------------------2-------2----------3-----3--|
-----3-----3------2-----------2------------3-------3----------0-----0--|
-----2-----2------2-----------2------------4-------4----------0-----0--|
--0---------------2-----------2------------4-------4----------0-----0--|
---------------0--------------------2-------------------------2-----2--|
-----------------------------------------------------------3-----------|

CHORUS:

The piano part does an arpeggio at this point. This sweep may not be correct but I think 
sounds close.
You can always just strum the chords

     Oh    no you   didn't Oh   No  You  Didn't
       D            A                    Bm
--------------------------------------------|
-----------10-------------------14----------|
---------7----7--------------14----14-------|
-------7--------7------11-14----------14-11-|
-----9------------9-12----------------------|
--10----------------------------------------|


    Oh    no you   didn't Oh   No  You  Didn't
                   G                    D
-------------------------------------------|
--------------------------------12---------|
-----------------------------12----12------|
---------9-12-9---------9-12----------12-9-|
-------9--------9----10--------------------|
--7-10------------10-----------------------|


                  Didn't      You    Oh  No
                  A                      Bm
--------------------------------------------|
-----------10-------------------14----------|
---------7----7--------------14----14-------|
-------7--------7------11-14----------14-11-|
-----9------------9-12----------------------|
--10----------------------------------------|

(I would barre this A with your first finger  |
and play the rest with your pinky)            |
                                              V
          You didn't pay me what you         owe         me
                     G
-------------------------------------------|--0--0--0--0--0--0--0--0--|
--------------------------------12---------|--2--2--2--2--3--3--3--3--|
-----------------------------12----12------|--2--2--2--2--2--2--2--2--|
---------9-12-9---------9-12----------12-9-|--2--2--2--2--2--2--2--2--|
-------9--------9----10--------------------|--0--0--0--0--0--0--0--0--|
--7-10------------10-----------------------|--------------------------|


  So now its     over  for you

--0--0---2--2---3--3---5--5--||
--5--5---2--2---2--2---2--2--||
--2--2---2--2---2--2---2--2--||
--2--2---2--2---2--2---2--2--||
--0--0---0--0---0--0---0--0--||
-----------------------------||

Then the guitar goes back to the verse. There are some "ba's" and then it goes back to 
lyrics

(Yo yo, check it out)
Oh no you didn't!
First you tried to trap me, then you bust a cap in my ass!
Oh no you didn't!
Such humiliation will bring annihilation, at last!
Oh no you didn't!
It will be delicious, when I get vicious, tomorrow!
Oh no you didn't!
There's no second chances, you will do the dance of sorrow!
Oh no you didn't!

(Chorus)

(Alright, come on)
Oh no you didn't!
Better watch your back boy, keep running
This ain't just a game, I'll never stop coming
I got my arsenal
I put out the call
And when I finish ya'll
You'll be a ragdoll

Fool tried to diss me, now you're gonna wish you were dead!
Oh no you didn't!
After I deliver, your blood will be a river of red!
Oh no you didn't!
Better beware, when no one's there to defend you!
Oh no you didn't!
So many ways to kill, it's gonna be a thrill to end you!
Oh no you didn't!

(Chorus)
Keep playing this last chord for the extra measures
5
2
2
2
0
-

Play this like the intro
Oh no!
Oh no!
Oh no!
Oh no you...(explosion)


That's it. It is pretty easy to figure what goes where. Enjoy!

| /  slide up
| \  slide down
| h  hammer-on
| p  pull-off
| ~  vibrato
| +  harmonic
| x  Mute note
===============================================================================
Suggest correction
comments
print report bad tab
4 comments total. Showing first comments.
0 reply
Guitar2theface 247 Sep 13, 2008 02:46 PM

I love you.

0 reply
Blazn Blue 115 Sep 13, 2008 11:25 PM

I love you too

0 reply
tom_ato 10 Sep 16, 2008 01:08 PM

Sweet tab, I think you've got it down.

guest
You may want to rate the tab now too:
select rating
Wanna post a correction for this tab? Suggest correction