Oops, an error
Loading. Please wait.

Cissy Strut bass

version 2
version 2

Whole song

31,934 views 30 this week
3 commentsread comments
1 2 3 4 5
x 19
add to favorites
×
Save as Personal and add changes to this tab that will be seen only by you. Learn more ›
×
You can save this tab as Personal to edit and correct it or add notes. All changes will be seen only by you. Learn more »
launch autoscroll
font size
0
reset
guitar tuner
backing track
0:00
0:00
edit
Autoscroll
slow
fast
+/-
esc
set tempo
stop
Author
Tabbers playing skills
advanced
I noticed that the bass tab we have of it is in a different key from the way it's 
so I'm going to give it a go in Eb (recorded key)

G|-5-3--------------------------------|Repeat 4 times
D|----5-------------------------5-----|
A|-----6-6b--3------3----3----3-------|
E|--------------3-5----5----------0-3-|

G|-5---5-3--5-3---5---5-3-------|Repeat 4 times
D|---5--------------5-----5-----|Then repeat riff 1 4times
A|--------------------------3---|Then repeat riff 2 another 4 times
E|------------------------------|then

G|---------------------------------------------------------------------------|
D|-5----5------5-------5-----5------5-----------------5-----5--------5----5--|
A|--3--3---------3---3---------3--3-------2---3--3---3--------3-3--3---------|
E|--------0-3------------0-3----------0-3---3-----------0-3------------0-3---|

G|-------------------------------------------------------|
D|--------------5-----5--------5-------------------5-----|
A|-3-3---3-3--3----------3---3--------3-3---3-3--3-------|
E|-----3----------0-3------------0-3------5----------0-3-|

Riff 2 4times, Riff one 4times, riff 2 4times start fading fourth time, then one time 
riff one and fade out completly.  Good luck!  I enjoy comments so throw em at me at Bombean18@Aol.com

************************************

| b  Bend

************************************
Suggest correction
Creating personal tab
Creating personal tab
You can edit any tab online and save it as your Personal.

You can edit, replace or remove any tab part or add personal notes – all changes will be seen only by you.

Personal tabs can be accessed anytime from any device, even offline.
Learn more »
comments
print report bad tab
3 comments total.
+1 reply
Gravedigga25 10 Apr 22, 2010 06:22 PM

Spot on tab, but it's not in Eb, it looks an awful lot like C to me.

0 reply
timbones 10 Sep 22, 2013 02:12 PM

It's using Cmin Pentatonic which is the relative minor to Eb Major so technically it is sharing Eb's key signature.
However there is no A in Cmin pent...it should be Bb (1st fret on A string instead of 5th fret on E string)

0 reply
pigpehn 10 Sep 18, 2014 06:32 AM

Regardless of key, Nocentelli plays the A note, not the Bb. His youtube video shows a version that matches this tab.

guest
You may want to rate the tab now too:
select rating
Wanna post a correction for this tab? Suggest correction