Oops, an error
Loading. Please wait.

Funky Miracle bass

version 1
version 1

Whole song

Interactive

6,635 views 6 this week
2 commentsread comments
1 2 3 4 5
x 4
add to favorites
×
Save as Personal and add changes to this tab that will be seen only by you. Learn more ›
×
You can save this tab as Personal to edit and correct it or add notes. All changes will be seen only by you. Learn more »
launch autoscroll
font size
0
reset
guitar tuner
edit
Autoscroll
slow
fast
+/-
esc
set tempo
stop
Author
Difficulty
Funky Miracle - by The Meters, from the album "Look-Ka Py Py"
Tabbed by Screeching_Coxy
paul_cox1@hotmail.co.uk

Some great stuff from the best funk band ever.
This one's up there with Cissy Strut.

Intro

-------------------------------------|
---------------5---------------------|
-7-5-------5-7-----7-5-------5-7-----|
-----7-5-7-------------7-5-7-----3---|

-----------------------------------|
---------------5-------------------|
-7-5-------5-7-----7-5-------5--6--|
-----7-5-7-------------7-5-7-------|


Riff 2

-----------9--------|
--------------------|
--7--0-7-7---10--7--|  x 8
--------------------|

Riff 3
          (g)
-------7h9-9-7-9-----------------|
--5--7------------5--7------(g)--|
------------------------7--5-5-7-|  x 2 (end on D on repeat)
---------------------------------|


Riff 2

------------9--------|
---------------------|
--7--0-7--7---10--7--|  x 4
---------------------|

"Intro"

-------------------------------------|
---------------5---------------------|
-7-5-------5-7-----7-5-------5-7-----|
-----7-5-7-------------7-5-7-----3---|

-------------------------------------|
---------------5---------------------|
-7-5-------5-7-----7-5-------5--6--7-|
-----7-5-7-------------7-5-7---------|

Rest x 1 bar


Riff 3
          (g)
-------7h9-9-7-9-----------------|
--5--7------------5--7------(g)--|
------------------------7--5-5-7-|  x 2 (end on D on repeat)
---------------------------------|


(Keyboard then Guitar Solos)

---------------------------------|
---------------------------------|
--7-7----------------------------| x 2
---------------------------------|

Bass solo 1

----9----------7--7-9----|
------6-6-7-8------------|
--7-------------------7--|
-------------------------|

(Keyboard then Guitar Solos)

---------------------------------|
---------------------------------|
--7-7----------------------------| x 2
---------------------------------|


Bass solo 2

----9-7---7--------------|
--------9---6-6-7-9------|
--7-----------------7----|
-------------------------|

Riff 2

------------9--------|
---------------------|
--7--0-7--7---10--7--|  x 8
---------------------|

Riff 3
          (g)
-------7h9-9-7-9-----------------|
--5--7------------5--7------(g)--|
------------------------7--5-5-7-|  x 2 (end on D on repeat)
---------------------------------|

Riff 2

------------9--------|
---------------------|
--7--0-7--7---10--7--|  x 4
---------------------|

"Outro"

-------------------------------------|
---------------5---------------------|
-7-5-------5-7-----7-5-------5-7-----|
-----7-5-7-------------7-5-7-----3---|

-------------------------------------|
---------------5---------------------|
-7-5-------5-7-----7-5-------5--6--7-|
-----7-5-7-------------7-5-7---------|


I tried to show where you might play some ghost notes (marked (g)). They're probably not 
helpful.
The bass solos are the dodgiest bits although I think they're close enough give or take 
bad notepad tab work!

            
            
Suggest correction
Creating personal tab
Creating personal tab
You can edit any tab online and save it as your Personal.

You can edit, replace or remove any tab part or add personal notes – all changes will be seen only by you.

Personal tabs can be accessed anytime from any device, even offline.
Learn more »
comments
print report bad tab
2 comments total.
0 reply
frusciante_man1 20 Aug 24, 2007 08:25 AM

great tab. love the meters

0 reply
comeondude 10 Oct 12, 2008 04:52 AM

I searched "funky" and saw this 5* tab. Awesome song ^^

guest
You may want to rate the tab now too:
select rating
Wanna post a correction for this tab? Suggest correction