Oops, an error
Loading. Please wait.

I Need More Time bass

898 views 6 this week
no commentswrite comment
1 2 3 4 5
3 more votes to show rating
add to favorites
×
Save as Personal and add changes to this tab that will be seen only by you. Learn more ›
×
You can save this tab as Personal to edit and correct it or add notes. All changes will be seen only by you. Learn more »
launch autoscroll
font size
0
reset
guitar tuner
edit
Autoscroll
slow
fast
+/-
esc
set tempo
stop
Author
This is the bass tablature for the single version of I Need More Time by The
Meters. All I know is that it appears on the 2005 album Funkify Your Life: The
Meters Anthology, and is track no. 14. I have also included the notes but they can be ignored.

Key
h - hammer on
* - start of a new bar


Intro 0:37

G-----------------------------------|
D-----------------------------------|
A------------------3----5-----------|
E--5----5----3--------------5----0--|

A A G C D A lowE


Verse 0:46

G-------------------------|
D---------------7----5----|          x2
A--10----7----------------|
E-------------------------|

G E            A G


G---------------------------------------------------------------|
D--------------------------------------------------7---5--------|      x4
A------------7--10---7----------------------5--7----------------|
E--5--7--9------------------0--------5--7-------------------0---|

A B C# E F# E E                  A B D E A G E

Play this section 4 times. On the 2nd and 4th repeats,
hold on the 10th fret for a fraction longer.

Chorus 1:14

G----------------------------------------------|
D----------------------------------------------|        x4
A------------7--10----7--5---------------------|
E--5--7--9-------------------7--5--3--0--0-----|

A B C# E G E D B A G E E

Verse 1:24

G---------------------------------------------------------------|
D--------------------------------------------------7---5--------|      x2
A------------7--10---7----------------------5--7----------------|
E--5--7--9------------------0--------5--7-------------------0---|

A B  C# E F# E lowE                  A B  D E A G E


Bridge 1:34

G----------------------------------------------*-----------------------------------------*
D----------------------------------------------*-----------------------------------------*
A----7-------------------------5--7------5-7---*------------------------5--7-------5-7---*
E------------3------5------8-----------7-----7-*0-------3-----5-----8------------7-----7-*

E G A C D E B D E B

G----------------------------------------------*------------------------------------------|
D----------------------------------------------*------------------------------------------|
A-----------------------------5--7-------5-7---*------------------------5--7-------5-7----|
E---0-------3------5------8------------7-----7-*0-------3-----5-----8------------7--------|

(* = New bar)

G---------------------|
D---------------------|    x4
A--7------------------|
E---------------------|


2:01

G--------------------------------------------------------------------|
D--------------------------------------------------------------------|
A-----------------------------------------------------------5-5--7---|
E--0----3----5--3-----0--0--------0----3----5--3--0------------------|

E G D G E E                       E G D G E

G------------------------------------------------------------------------|
D------------------------------------------------------------------------|      x3
A----------------------------------------------------------------5-5--7--|
E--0-0----3----5--3-----0--0--------0-0----3----5--3--0------------------|  (More swung)

E E G D G E E                       E E G D G E


2:20

G--------------------------------------------------|
D--------------------------------------------------|     x 10  fade out
A----7-------------------------5--7---------5-7----|
E------------3------5------8-------------7------7--|

E G A C D E B D E B

I think this tab is pretty accurate. I know there is a not or two missing from bridge 
but it still sound good. Please leave a rating to let others know what you think of this 
Thanks

            
            
Suggest correction
Creating personal tab
Creating personal tab
You can edit any tab online and save it as your Personal.

You can edit, replace or remove any tab part or add personal notes – all changes will be seen only by you.

Personal tabs can be accessed anytime from any device, even offline.
Learn more »
Give kudos to tab author, rate the tab!
1 2 3 4 5
comments
print report bad tab
guest
You may want to rate the tab now too:
select rating
Wanna post a correction for this tab? Suggest correction