Oops, an error
Loading. Please wait.

Look-Ka Py Py tab

version 1
version 1

Whole song

3,218 views 12 this week
2 commentsread comments
1 2 3 4 5
2 more votes to show rating
add to favorites
×
Save as Personal and add changes to this tab that will be seen only by you. Learn more ›
×
You can save this tab as Personal to edit and correct it or add notes. All changes will be seen only by you. Learn more »
launch autoscroll
font size
0
reset
how to read this tab
guitar tuner
edit
Autoscroll
slow
fast
+/-
esc
set tempo
stop
Author
-------------------------------------------------------------------------------
                             Look-ka Py Py - The Meters
-------------------------------------------------------------------------------
Tabbed by: Jeff

Tuning: standard

main riff                            C9
e|---------------------3---3---3----------------------------3--3--3---------|
B|---------------------3---3---3----------------------------3--3--3---------|
G|------------3h4------3---3---3---------------------------3--3--3----------|
D|-----3---5------5----2---2---2----------3---5--3---------2--2--2----------|
A|---5---5-------------3---3---3--------5---5------5-------3--3--3----------|
E|-----------------------------------------------------2--3-----------------|

repeat that 4x

then

e|------------------------------------------------------------------------------|
B|-------------------------------6----------------------------------------------|
G|--------------------------5/7----7--5--5--------------------------------------|
D|-----3--1-----1---3----------------------------3--1-----1---3-----------------|
A|-----------3-------------------------------------------3----------------------|
E|----------------------------------------------------------------1-------------|


************************************

| /   slide up
| \   slide down
| h   hammer-on
| p   pull-off
| ~   vibrato
| +   harmonic
| x   Mute note
| b   Bend
| pb  Pre-bend
| br  Bend release
| pbr Pre-bend release
| brb Bend release bend

************************************

            
            
Suggest correction
Creating personal tab
Creating personal tab
You can edit any tab online and save it as your Personal.

You can edit, replace or remove any tab part or add personal notes – all changes will be seen only by you.

Personal tabs can be accessed anytime from any device, even offline.
Learn more »
Give kudos to tab author, rate the tab!
1 2 3 4 5
comments
print report bad tab
2 comments total.
0 reply
chrisbreitner 10 May 27, 2014 05:48 PM

I'm not hearing a C9 at all in the first part (over G). I'm hearing a fragment of a G7.

0 reply
MikeyB59 10 May 11, 2017 11:41 AM

Agree about G7. I'm thinking a 3/b7/1 voicing on top 3 strings.

guest
You may want to rate the tab now too:
select rating
Wanna post a correction for this tab? Suggest correction