Oops, an error
Loading. Please wait.

People Say bass

6,248 views 9 this week
2 commentsread comments
1 2 3 4 5
1 last vote to show rating
add to favorites
×
Save as Personal and add changes to this tab that will be seen only by you. Learn more ›
×
You can save this tab as Personal to edit and correct it or add notes. All changes will be seen only by you. Learn more »
launch autoscroll
font size
0
reset
guitar tuner
edit
Autoscroll
slow
fast
+/-
esc
set tempo
stop
Song Title:   People Say
Group:        The Meters
Bass Player:  George Porter, Jr.
Bass Tab by:  SCube

(guitar intro)
|----------------|----------------|----------------|----------------|
|----------------|----------------|----------------|----------------|
|----------------|----------------|----------------|----------------|
|----------------|----------------|----------------|----------------|
(drums enter)
|----------------|----------------|----------------|----------------|
|----------------|----------------|----------------|----------------|
|----------------|----------------|----------------|----------------|
|----------------|----------------|----------------|----------------|
(bass enters)
|--------------7-|----------------|--------------7-|----------------|
|----------------|----------------|----------------|----------------|
|5---8---5-5-----|5---------------|5---8-8-5-5-----|5---------------|
|----------------|----------------|----------------|----------------|

|--------------7-|----------------|--------------7-|----------------|
|----------------|----------------|----------------|----------------|
|5---8-8-5-5-----|5---------------|5---8-8-5-5-----|5---------------|
|----------------|----------------|----------------|----------------|

|--------------7-|----------------|--------------7-|----------------|
|----------------|----------------|----------------|----------------|
|5---8-8-5-5-----|5---------------|5---8-8-5-5-----|5---------------|
|----------------|----------------|----------------|----------------|

|--------------7-|----------------|--------------7-|----------------|
|----------------|----------------|----------------|----------------|
|5---8-8-5-5-----|5---------------|5---8-8-5-5-----|5---------------|
|----------------|----------------|----------------|----------------|

|--------------7-|----------------|--------------7-|----------------|
|----------------|----------------|----------------|----------------|
|5---8-8-5-5-----|5---------------|5---8-8-5-5-----|5---------------|
|----------------|----------------|----------------|----------------|

|--------------7-|----------------|--------------7-|----------------|
|----------------|----------------|----------------|----------------|
|5---8-8-5-5-----|5---------------|5---8-8-5-5-----|5---------------|
|----------------|----------------|----------------|----------------|

(chorus)
|----------------|----------------|----------------|----------------|
|----------------|----------------|----------------|----------------|
|----------------|----------------|5--55-----------|5--55-----------|
|3--33-----------|3--33-----------|----------------|----------------|

|----------------|----------------|----------------|----------------|
|----------------|----------------|----------------|----------------|
|----------------|----------------|5--55-----------|5--55-----------|
|3--33-----------|3--33-----------|----------------|----------------|

|----------------|----------------|
|----------------|----------------|
|----------------|----------------|
|3--33-----------|3--33-----------|


|--------------7-|----------------|--------------7-|----------------|
|----------------|----------------|----------------|----------------|
|5---8-8-5-5-----|5---------------|5---8-8-5-5-----|5---------------|
|----------------|----------------|----------------|----------------|

|--------------7-|----------------|--------------7-|----------------|
|----------------|----------------|----------------|----------------|
|5---8-8-5-5-----|5---------------|5---8-8-5-5-----|5---------------|
|----------------|----------------|----------------|----------------|

|--------------7-|----------------|--------------7-|----------------|
|----------------|----------------|----------------|----------------|
|5---8-8-5-5-----|5---------------|5---8-8-5-5-----|5---------------|
|----------------|----------------|----------------|----------------|

|--------------7-|----------------|--------------7-|----------------|
|----------------|----------------|----------------|----------------|
|5---8-8-5-5-----|5---------------|5---8-8-5-5-----|5---------------|
|----------------|----------------|----------------|----------------|

|--------------7-|----------------|--------------7-|----------------|
|----------------|----------------|----------------|----------------|
|5---8-8-5-5-----|5---------------|5---8-8-5-5-----|5---------------|
|----------------|----------------|----------------|----------------|

|--------------7-|----------------|--------------7-|----------------|
|----------------|----------------|----------------|----------------|
|5---8-8-5-5-----|5---------------|5---8-8-5-5-----|5---------------|
|----------------|----------------|----------------|----------------|

(chorus)
|----------------|----------------|----------------|----------------|
|----------3--4--|----------3--4--|----------------|----------------|
|----------------|----------------|5--55-----------|5--55-----------|
|3--33-----------|3--33-----------|----------------|----------------|

|----------------|----------------|----------------|----------------|
|----------3--4--|----------3--4--|----------------|----------------|
|----------------|----------------|5--55-----------|5--55-----------|
|3--33-----------|3--33-----------|----------------|----------------|

|----------------|----------------|--5-75----------|------------|
|----------3--4--|--------------56|77-7--765-------|----3-------|
|----------------|----------------|---------5785---|--3--53----4|
|3--33-----------|3--33-----------|--------------34|55-5---5431-|


|--------------7-|----------------|--------------7-|----------------|
|----------------|----------------|----------------|----------------|
|5---8-8-5-5-----|5---------------|5---8-8-5-5-----|5---------------|
|----------------|----------------|----------------|----------------|

|--------------9-|----------------|--------------9-|----------------|
|----5-5---------|----------------|----5-5---------|----------------|
|7-------7-7-----|7---------------|7-------7-7-----|7---------------|
|----------------|----------------|----------------|----------------|

|--------------9-|----------------|--------------9-|----------------|
|----5-5---------|----------------|----5-5---------|----------------|
|7-------7-7-----|7---------------|7-------7-7-----|7---------------|
|----------------|----------------|----------------|----------------|

|--------------9-|----------------|--------------9-|----------------|
|----5-5---------|----------------|----5-5---------|----------------|
|7-------7-7-----|7---------------|7-------7-7-----|7---------------|
|----------------|----------------|----------------|--------8-------|

|--------------7-|----------------|--------------7-|----------------|
|----------------|----------------|----------------|----------------|
|5---8-8-5-5-----|5---------------|5---8-8-5-5-----|5---------------|
|----------------|----------------|----------------|----------------|

|--------------7-|----------------|--------------7-|----------------|
|----------------|----------------|----------------|----------------|
|5---8-8-5-5-----|5---------------|5---8-8-5-5-----|5---------------|
|----------------|----------------|----------------|----------------|

|--------------7-|----------------|--------------7-|----------------|
|----------------|----------------|----------------|----------------|
|5---8-8-5-5-----|5---------------|5---8-8-5-5-----|5---------------|
|----------------|----------------|----------------|----------------|

|--------------7-|----------------|--------------7-|----------------|
|----------------|----------------|----------------|----------------|
|5---8-8-5-5-----|5---------------|5---8-8-5-5-----|5---------------|
|----------------|----------------|----------------|----------------|

|--------------7-|----------------|--------------7-|----------------|
|----------------|----------------|----------------|----------------|
|5---8-8-5-5-----|5---------------|5---8-8-5-5-----|5---------------|
|----------------|----------------|----------------|----------------|

|--------------7-|----------------|--------------7-|----------------|
|----------------|----------------|----------------|----------------|
|5---8-8-5-5-----|5---------------|5---8-8-5-5-----|5---------------|
|----------------|----------------|----------------|----------------|

(chorus)
|----------------|----------------|----------------|----------------|
|----------3--4--|----------3--4--|----------------|----------3--4--|
|----------------|----------------|5--55-----3--4--|5--55-----------|
|3--33-----------|3--33-----------|----------------|----------------|

|----------------|----------------|----------------|----------------|
|5--55-----3--4--|5--55-----------|----------------|----------3--4--|
|----------------|----------------|5--55-----3--4--|5--55-----------|
|----------------|----------1--3--|----------------|----------------|

|----------------|----------------|----------------|----------------|
|5--55-----3--4--|5--55-----------|----------------|----------3--4--|
|----------------|----------3--4--|5--55-----3--4--|5--55-----------|
|----------------|----------------|----------------|----------------|

|----------------|----------------|----------------|----------------|
|5--55-----------|----------------|----------3--4--|----------3--4--|
|-------------3--|----------3--4--|5--55-----------|5--55-----------|
|----------------|3--33-----------|----------------|----------------|

play variations as song fades out


            
            
Suggest correction
Creating personal tab
Creating personal tab
You can edit any tab online and save it as your Personal.

You can edit, replace or remove any tab part or add personal notes – all changes will be seen only by you.

Personal tabs can be accessed anytime from any device, even offline.
Learn more »
Give kudos to tab author, rate the tab!
1 2 3 4 5
comments
print report bad tab
2 comments total.
0 reply
granzombi 10 Jan 23, 2016 08:22 AM, edited at 01:22 pm

I think it's easier to play the m3 on the higher string, like you have it in the Em section. |--------------7-|----------------|--------------7-|----3-----------|----------------|----3-3---------|5-------5-5-----|5---------------|5-------5-5-----|----------------|----------------|---------------- and
|----------------|--5-75----------|------------||--------------56|77-7--765-34----|----3-------||----------------|---------5--5---|--3--53----4||3--33-----------|--------------34|55-5---5431-|just a personal taste thing...

0 reply
granzombi 10 Jan 23, 2016 08:30 AM

Well, sorry. Tried to post as a correction and the format went bonkers on me and now I can't delete it...
|--------------7-|----------------|--------------7-|----------------|
|----3-----------|----------------|----3-3---------|----------------|
|5-------5-5-----|5---------------|5-------5-5-----|5---------------|
|----------------|----------------|----------------|--------------

and:
|----------------|--5-75----------|------------|
|--------------56|77-7--765-34----|----3-------|
|----------------|---------5--5---|--3--53----4|
|3--33-----------|--------------34|55-5---5431-|

guest
Wanna post a correction for this tab? Suggest correction