Oops, an error
Loading. Please wait.

Sissy Strut tab

3,829 views 3 this week
2 commentsread comments
1 2 3 4 5
x 6
add to favorites
×
Save as Personal and add changes to this tab that will be seen only by you. Learn more ›
×
You can save this tab as Personal to edit and correct it or add notes. All changes will be seen only by you. Learn more »
launch autoscroll
font size
0
reset
how to read this tab
guitar tuner
edit
Autoscroll
slow
fast
+/-
esc
set tempo
stop
Author
Difficulty
This is my first tab so bare (if thats how it is) with me. There wasn't a tab for this song and I thought it deserved one. This is probably the most accurate tab for the song. Email me with any questions or comments.

Oh and I tried to time it out but it didnt work. Listen to the song and you can easily figure out the rhythm.

Tabbed by: Nate Lanman
Email: natel74@aim.com

Tuning: standard EADGBe

Main Riff

WhoaaaaaaYAH!
e|------------------66-55----------------------------------------|
B|------------------66-66----------------------------------------|
G|53----------------55-55----------------------------------------| X4
D|--5------------------------------------------------------------|  
A|---6--3------3-3-----------------------------------------------|
E|----------35--5------------------------------------------------|

Chorus

e|--------------------------------------------------------------|
B|--------------------------------------------------------------|
G|5-353-53--5-353------5-353-53--5-353--------------------------| X2
D|-----------------5--------------------5-----------------------| 
A|------------------3--------------------3----------------------|
E|--------------------------------------------------------------|

            
            
Suggest correction
Creating personal tab
Creating personal tab
You can edit any tab online and save it as your Personal.

You can edit, replace or remove any tab part or add personal notes – all changes will be seen only by you.

Personal tabs can be accessed anytime from any device, even offline.
Learn more »
comments
print report bad tab
2 comments total.
0 reply
guitarxkeeper 12 Nov 07, 2013 05:01 PM

Sissy Strut
The Meters

Main Riff

WhoaaaaaaYAH!
e|------------------66-55----------------------------------------|
B|------------------66-66----------------------------------------|
G|53----------------55-55----------------------------------------| X4
D|--5------------------------------------------------------------|
A|---6--3------3-3-----------------------------------------------|
E|----------35--5------------------------------------------------|

Chorus

e|--------------------------------------------------------------|
B|--------------------------------------------------------------|
G|5-353--53-5-353------5-353--53-5-353--------------------------| X2
D|------5----------5---------5----------5-----------------------|
A|------------------3--------------------3----------------------|
E|--------------------------------------------------------------|

0 reply
kwsyler 15 Jul 29, 2016 10:59 AM

didn't like this contribution

guest
You may want to rate the tab now too:
select rating
Wanna post a correction for this tab? Suggest correction