Oops, an error
Loading. Please wait.

Moon tab

25,873 views 60 this week
1 commentread comment
1 2 3 4 5
x 14
add to favorites
×
Save as Personal and add changes to this tab that will be seen only by you. Learn more ›
×
You can save this tab as Personal to edit and correct it or add notes. All changes will be seen only by you. Learn more »
launch autoscroll
font size
0
reset
how to read this tab
guitar tuner
edit
Autoscroll
slow
fast
+/-
esc
set tempo
stop
Author
Microphones - The Moon
Written by Phil Elvrum
Tabbed by Josh Sharp (tabs at killthelight dot net)

I tabbed this from the acoustic version on 'Song Islands'.
The structure doesn't differ too greatly except that once
the vocals start it doesn't get vastly faster like on
the 'studio' version. And no horns :)

[INTRO]
He plays around with the chords a bit, adding notes, but this is the basic riff.
                           x3    then
e|----------------------|--------------------------|
B|----------------------|--------------------------|
G|-------2------------o-|--------------------------|
D|----0------0--------o-|-----------0--------------|
A|-2--------------------|--0--h2--4----------------|
E|----------------------|--------------------------|

e|----------------------|
B|----------------------|
G|-------2------------o-|
D|----0------0--------o-|x4
A|----------------------|
E|-3--------------------|

[VERSE] (w/intro pattern faster)

 [CHORUS]
e|---------------------------------------------------|
B|---------------------------------------------------|
G|-------------------------------------------------o-|
D|-------------------------------------------------o-|
A|-2-------------------------------5---4---2----0----|
E|---------------------------------------------------|

            
            
Suggest correction
Creating personal tab
Creating personal tab
You can edit any tab online and save it as your Personal.

You can edit, replace or remove any tab part or add personal notes – all changes will be seen only by you.

Personal tabs can be accessed anytime from any device, even offline.
Learn more »
comments
print report bad tab
1 comment total.
+1 reply
nmcclure1 10 Jun 17, 2017 08:42 AM

love this record!

guest
You may want to rate the tab now too:
select rating
Wanna post a correction for this tab? Suggest correction