Oops, an error
Loading. Please wait.

Do You Love Me Tab

5,903 views 3 this week
no commentswrite comment
1 2 3 4 5
accurate
x 3
add to favorites
launch autoscroll
font size
0
reset
how to read this tab
guitar tuner
Autoscroll
slow
fast
+/-
esc
set tempo
stop
Help us to improve Ultimate-Guitar.com Take our survey!
×

e---------------------|
b---------------5-----|
g---------5--7--5-----|
d----2----5--7--x-----|
a--0---3--3--5--7-----|
E---------------------|

strum c down then strum up on d...

listen to the live lounge version and you should pick it up!

Interlude bit:

e--------------|
b--------------|
g-----4--2-----|
d--9--5--3--2--|           not sure on all these chords.
a--7--5--3--2--|
E--7--3--1--0--|


sounds somewhere near to me?? a basis for correction?
Suggest correction
Give kudos to tab author, rate the tab!
1 2 3 4 5
comments
print report bad tab
guest
You may want to rate the tab now too:
select rating
Wanna post a correction for this tab? Suggest correction