Oops, an error
Loading. Please wait.

Eels Tab

version 1
version 1

Whole song

5,398 views 1 this week
no commentswrite comment
1 2 3 4 5
3 more votes to show rating
add to favorites
launch autoscroll
font size
0
reset
how to read this tab
guitar tuner
Autoscroll
slow
fast
+/-
esc
set tempo
stop
Help us to improve Ultimate-Guitar.com Take our survey!
×
well i watched the show live and yeah

e|------------------------------------------------------------------|
b|------------------------------------------------------------------|
g|---------------6--------------------------------------------------|
d|------------5--x--------------------------------------------------|
a|-----4---4--x--4----4---4-----------------------------------------|
e|---3---3----3-----3---3-------------------------------------------|
  eels up inside ya finding entrence where they can x2

e|------------------------------------------------------------------|
b|------------------------------------------------------------------|
g|-----------------6-6-6-6------------------------------------------|
d|-5-5-5-5-5-5-5-5-x-x-x-x------------------------------------------|x2
a|-x-x-x-x-x-x-x-x-4-4-4-4------------------------------------------|
e|-3-3-3-3-3-3-3-3--------------------------------------------------|
  eels x8         give it up know

the same as part one but faster with

i was obsileet liveing in the past stumblin around on my olds man feet
i got one foot in the grave now new rave
Suggest correction
Give kudos to tab author, rate the tab!
1 2 3 4 5
comments
print report bad tab
guest
You may want to rate the tab now too:
select rating
Wanna post a correction for this tab? Suggest correction