Oops, an error
Loading. Please wait.

Mod Wolves Bass Tab

826 views 1 this week
no commentswrite comment
1 2 3 4 5
please rate
add to favorites
launch autoscroll
font size
0
reset
guitar tuner
Autoscroll
slow
fast
+/-
esc
set tempo
stop
Help us to improve Ultimate-Guitar.com Take our survey!
×
Author
Difficulty
~ = Ring

G |-----------------------------------------------------------|
A |-----------------------------------------------------------|
D |-------4-5-45454-------------------------------------------| x 2
E |-0-2-3-----------------------------------------------------|


G |-----------------------------------------------------------|
A |---------------------------19~-----------------------------|
D |-------4-5-------------------------------------------------|
E |-0-2-3-----------------------------------------------------|

G |-----------------------------------------------------------|
A |-----------------------------------------------------------|
D |-------4-5-45454-------------------------------------------| until end.
E |-0-2-3-----------------------------------------------------|
Suggest correction
Give kudos to tab author, rate the tab!
1 2 3 4 5
comments
print report bad tab
guest
You may want to rate the tab now too:
select rating
Wanna post a correction for this tab? Suggest correction