Oops, an error
Loading. Please wait.

Pass The Kutchie Bass Tab

version 1
version 1

Whole song

Interactive

281 views 1 this week
no commentswrite comment
1 2 3 4 5
please rate
add to favorites
launch autoscroll
font size
0
reset
guitar tuner
Tab Pro tools
  • play this tab
  • loop segment
  • change instrument
  • show fretboard
  • metronome
×
Best way to learn
"Pass The Kutchie"
Autoscroll
slow
fast
+/-
esc
set tempo
stop
Contributor
Difficulty
novice
MIGHTY DIAMONDS - PASS THE KUTCHIE

G-------------------------------|
D------------------5---5--------|
A----3---0-3-3-3-----------5----|
E-------------------------------|

G-------------------------------|
D------------------5---5--------|
A----3---0-3-3-3-----------5----|
E-------------------------------|

Repeat during the whole song
comments
We did not receive enough feedback on this tab! Please rate:
print report bad tab
1 2 3 4 5
I want to post or [tab]
guest
You may want to rate the tab now too:
select rating
Please do not post tabs as comments. Select "correction" instead!