Oops, an error
Loading. Please wait.

Awfully Quiet Bass

305 views 1 this week
no commentswrite comment
1 2 3 4 5
3 more votes to show rating
add to favorites
launch autoscroll
font size
0
reset
guitar tuner
Autoscroll
slow
fast
+/-
esc
set tempo
stop
Awfully Quiet 
by the Mighty Mighty Bosstones

tabbed by Colin cshaw@student.umass.edu


Riff #1

|--------------------------|
|--------------------------|
|--------------------1-----|
|--3--3--3--3--3--3-----1--|

Riff #2  (This is not exactly it but I can't figure it out)

|--------------------------|
|--------------------------|
|--3h5-5-3h5-5-3h5-5--3-2--|
|--------------------------|

Riff #3                           Riff #3a

|--------------------------|      |--------------------------|
|-----------------4--------|      |-----------------4-----6--|
|--------------5-----------|      |----------------5-----7-----|
|--5--4--2--0--------0--4--|      | --5--4--2--0--------------|



Riff #4

|--------------------------|
|--7--6--4--------4-----6--|
|-----------7--5-----7-----|
|--------------------------|


Riff #5

|--------------------------|--------------------------|
|-----5--------------------|-----5--------------------|
|--------2-2-3----3-2------|--------2-2-5----5-3-2----|
|--3------------------5-3--|--3--------------------5--|


Riff #6

|--------------------------|--------------------------|
|--------------------------|-------------------2------|
|--5--3h5-----------5--3---|--3--2h3--5--5--5-----5---|
|----------3--3--3---------|--------------------------|


Riff #7

|--------------------------|--------------------------|
|-----5--------------------|-----5--------------------|
|--------2-2-3-------------|--------2-2-5-------------|
|--3-----------------------|--3-----------------------|


That should give enough to go on...
Riff #1 & #2 make up the intro and also appear at the end in reverse order
Riff #3 is kinda the main riff 
Riff #3a leads into Riff #4 which is basically the verse
Riff #5 is the chorus
Riff #6 is the post-chorus thing
Riff #7 is the ooh/ahh part

Feel free to make any comments/suggestions, especially on Riff #2
-Colin 
Suggest correction
Give kudos to tab author, rate the tab!
1 2 3 4 5
comments
print report bad tab
guest
You may want to rate the tab now too:
select rating
Wanna post a correction for this tab? Suggest correction