Oops, an error
Loading. Please wait.

Dont Worry Desmond Dekker Tab

909 views 1 this week
no commentswrite comment
1 2 3 4 5
excellent!
x 1
add to favorites
launch autoscroll
font size
0
reset
how to read this tab
guitar tuner
Tab Pro tools
  • play this tab
  • loop segment
  • change instrument
  • show fretboard
  • metronome
Autoscroll
slow
fast
+/-
esc
set tempo
stop
Contributor
Difficulty
novice
Artist: Mighty Mighty Bosstones
Song: Don't Worry Desmond Dekker
Tabbed By: McMasta

Intro Chords
    F#m       E
E||--7--------5--------|
B||--8--------7--------|
G||--9--------7--------|
D||--9--------7--------|
A||--7--------5--------|
E||--------------------|

Verse/Chorus
     A                                  E
|--x-5-x-5-x-5-x-5-x-5-x-5-x-5-x-5-|--x-4-x-4-x-4-x-4-x-4-x-4-x-4-x-4-|
|--x-5-x-5-x-5-x-5-x-5-x-5-x-5-x-5-|--x-5-x-5-x-5-x-5-x-5-x-5-x-5-x-5-|
|--x-6-x-6-x-6-x-6-x-6-x-6-x-6-x-6-|--x-4-x-4-x-4-x-4-x-4-x-4-x-4-x-4-|
|----------------------------------|----------------------------------|
|----------------------------------|----------------------------------|
|----------------------------------|----------------------------------|


     D                                  A               E
|--x-5-x-5-x-5-x-5-x-5-x-5-x-5-x-5-|--x-5-x-5-x-5-x-5-x-4-x-4-x-4-x-4-|
|--x-7-x-7-x-7-x-7-x-7-x-7-x-7-x-7-|--x-5-x-5-x-5-x-5-x-5-x-5-x-5-x-5-|
|--x-7-x-7-x-7-x-7-x-7-x-7-x-7-x-7-|--x-6-x-6-x-6-x-6-x-4-x-4-x-4-x-4-|
|----------------------------------|----------------------------------|
|----------------------------------|----------------------------------|
|----------------------------------|----------------------------------|

Chorus Chords
                1st Ending
|---------------|-------|
|---------------|-------|
|------------7--|-------|
|--7----2----7--|---7---|
|--7----2----5--|---7---|
|--5----0-------|---5---|

       2nd Ending
|-------------------------|
|-------------------------|
|-------------------------|
|--4--------2----------7--|
|--4--------2----------7--|
|--2--------0----------5--|

1st Bridge
|--------------------|--------------------|--------------------|--------------------|
|--------------------|--------------------|--------------------|--------------------|
|--------------------|--------------------|--------------------|--------------------|
|--------------------|---------7------7---|--------------------|--------------------|
|--------4-------4---|--5-5-5---5-5-5---5-|--------7-------7---|--------2-------2---|
|--2-2-2---2-2-2---2-|--------------------|--5-5-5---5-5-5---5-|--0-0-0---0-0-0---0-|


These chords echo in the backround during the 1st Bridge. Their inversions may work 
but they're distorted so its hard to tell.
|--5-5--5-5--5-5--4-4-|
|--7-7--7-7--5-5--5-5-|
|--6-6--7-7--6-6--4-4-|
|---------------------|
|---------------------|
|---------------------|

2nd Bridge
|------------------------------|-----12-12-------12-12-|
|------------------------------|--10----------10-------|
|----------------7-------------|-----------------------|
|--7------2------7------2------|-----------------------|
|--7------2------5------2------|-----------------------|
|--5------0-------------0------|-----------------------|
                                          ^
(These can be vaguely heard in the backround, just repeat as necessary)
comments
We did not receive enough feedback on this tab! Please rate:
print report bad tab
1 2 3 4 5
I want to post or [tab]
guest
You may want to rate the tab now too:
select rating
Please do not post tabs as comments. Select "correction" instead!