Oops, an error
Loading. Please wait.

Rascal King Tab

version 1
version 1

Whole song

Interactive

5,619 views 1 this week
3 commentsread comments
1 2 3 4 5
please rate
add to favorites
launch autoscroll
font size
0
reset
how to read this tab
guitar tuner
Tab Pro tools
  • play this tab
  • loop segment
  • change instrument
  • show fretboard
  • metronome
×
Best way to learn
"Rascal King"
Autoscroll
slow
fast
+/-
esc
set tempo
stop
Tabbed by: Ade Percival
This song has only got to parts to it on guitar but it is a bitchin' song and is alot of 
to play.

Intro/Verse
E|-4-44--4-44--6-66--4-44--|
B|-6-66--4-44--7-77--4-44--|
G|-6-66--5-55--8-88--5-55--|
D|-------6-66--------6-66--|
A|-------------------------|
E|-------------------------|

Chorus
E|-4-44--6-66--8--8-8---6-66--|
B|-6-66--7-77--9--9-9---7-77--|
G|-6-66--8-88--10-1010--8-88--|
D|----------------------------|
A|----------------------------|
E|----------------------------|

Order:
Intro(x2)
Verse(x4)
Chorus(x4)
Verse(x4)
Chorus(x4)
Intro(x4)
Verse(x4)
Chorus(x4)
End
comments
We did not receive enough feedback on this tab! Please rate:
print report bad tab
1 2 3 4 5
3 comments total.
0 reply
Stratsisphat wrote on August 2 2007, 06:10 pm

I like the song, and the tab was what I needed, thanks.

0 reply
ayestrey wrote on October 3 2007, 05:21 am

hey if anyone figures out the solo please email me @ gold_fingare@hotmaildotcom cheers
btw great tab

0 reply
Miamasa wrote on February 27 2016, 10:55 pm


Short solo:
e|--9-----------12p9-------------6--6--6--6--6--\--8--8------------|
B|--12b14--------------r12-------7--7--7--7--7--\--9--9--...-------|
G|-----------------------------------------------------------------|
D|-----------------------------------------------------------------|
A|-----------------------------------------------------------------|
E|-----------------------------------------------------------------|

12p9 with pinky.
Not sure about the last notes. The 9 could be 8b. I dunno.

I want to post or [tab]
guest
You may want to rate the tab now too:
select rating
Please do not post tabs as comments. Select "correction" instead!