Oops, an error
Loading. Please wait.

That Bug Bit Me Tab

354 views 1 this week
no commentswrite comment
1 2 3 4 5
please rate
add to favorites
launch autoscroll
font size
0
reset
how to read this tab
guitar tuner
Tab Pro tools
  • play this tab
  • loop segment
  • change instrument
  • show fretboard
  • metronome
×
Best way to learn
"That Bug Bit Me"
Autoscroll
slow
fast
+/-
esc
set tempo
stop
Contributor
	-------------------------------------------------------------------------------
			     That Bug Bit Me Intro - The Mighty Mighty Bosstones
-------------------------------------------------------------------------------
Album: Let's Face It
Tabbed by: Skinted

Tuning: Standard

e|-----------------------------------------------------------------------|
B|-----------------------------------------------------------------------|
G|-5-5---5-5---5-5---10-9------------------------------------------------|
D|-5-5---5-5---5-5---10-9---5-5---5-5---5-5---5---5----------------------|
A|-3-3---3-3---3-3----8-7---5-5---5-5---5-5---5---5----------------------|
E|--------------------------3-3---3-3---3-3---3---3----------------------|
	
comments
We did not receive enough feedback on this tab! Please rate:
print report bad tab
1 2 3 4 5
I want to post or [tab]
guest
You may want to rate the tab now too:
select rating
Please do not post tabs as comments. Select "correction" instead!