Oops, an error
Loading. Please wait.

The Old School Off The Bright Tab

542 views 1 this week
no commentswrite comment
1 2 3 4 5
please rate
add to favorites
launch autoscroll
font size
0
reset
how to read this tab
guitar tuner
Tab Pro tools
  • play this tab
  • loop segment
  • change instrument
  • show fretboard
  • metronome
×
Best way to learn
"The Old School Off The Bright"
Autoscroll
slow
fast
+/-
esc
set tempo
stop
Contributor
The Mighty Mighty Bosstones
A Jackknife To A Swan
The Old School Off The Bright

Intro:
---------------------------------------------------|
---------------------------------------------------|
-------------------------22-22-22---44-44-44-------|
---22-22-22---55-55-55---22-22-22---44-44-44-------|
---22-22-22---55-55-55---00-00-00---22-22-22-------|
---00-00-00---33-33-33-----------------------------|


Riff 1
---x-4-x-4-x-4-x-4-x-5-x-5-x-5-x-5-x-7-x-7-x-7-x-7-x-5-x-5-x-5-x-5---|
---x-5-x-5-x-5-x-5-x-5-x-5-x-5-x-5-x-7-x-7-x-7-x-7-x-5-x-5-x-5-x-5---|
---x-4-x-4-x-4-x-4-x-6-x-6-x-6-x-6-x-8-x-8-x-8-x-8-x-6-x-6-x-6-x-6---|
-------------------x-7-x-7-x-7-x-7-x-9-x-9-x-9-x-9-x-7-x-7-x-7-x-7---|
---------------------------------------------------------------------| x3
---------------------------------------------------------------------|


---x-4-x-4-x-4-x-4-x-5-x-5-x-5-x-5-x-7-x-7-x-7-x-7-----------------|
---x-5-x-5-x-5-x-5-x-5-x-5-x-5-x-5-x-7-x-7-x-7-x-7-----------------|
---x-4-x-4-x-4-x-4-x-6-x-6-x-6-x-6-x-8-x-8-x-8-x-8-----------------|
-------------------x-7-x-7-x-7-x-7-x-9-x-9-x-9-x-9-7-7-7-------2---|
---------------------------------------------------7-7-7-------2---|
---------------------------------------------------5-5-5-532v--0---|


Verse 1
---------------------------------------------------------------------|
---------------------------------------------------------------------|
-------------------2-2-2-2-4-4----------------------2-2-2-2-4-4-4-4--|
---2-2-2-2-2-2-2-2-2-2-2-2-4-4------2-2-2-2-2-2-2-2-2-2-2-2-4-4-4-4--|
---2-2-2-2-2-2-2-2-0-0-0-0-2-2------2-2-2-2-2-2-2-2-0-0-0-0-2-2-2-2--|
---0-0-0-0-0-0-0-0-------------532v-0-0-0-0-0-0-0-0------------------|


Bridge
---------------------|
---------------------|
---------------------|
---2-2-2-2-2-2-2-2---|
---2-2-2-2-2-2-2-2---|
---0-0-0-0-0-0-0-0---|

Verse 2
---------------------------------------------------------------------|
---------------------------------------------------------------------|
-------------------4-4-4-4-2-2-2-2-9-9-9-9-9-9-9-9-------------------|
---2-2-2-2-2-2-2-2-4-4-4-4-2-2-2-2-9-9-9-9-9-9-9-9-9-9-9-9-7-7-7-7---|
---2-2-2-2-2-2-2-2-2-2-2-2-0-0-0-0/7-7-7-7-7-7-7-7-9-9-9-9-7-7-7-7---|
---0-0-0-0-0-0-0-0---------------------------------7-7-7-7-5-5-5-5---|
  pm............pm   pm..pm  pm.pm   pm.........pm   pm.pm   pm.pm

Intro

Verse 3
--------------------------------------|
--------------------------------------|
----9-9-9-9-9-9-9-9-------------------|
----9-9-9-9-9-9-9-9-7-7-7-7-9-9-9-9---|
---/7-7-7-7-7-7-7-7-7-7-7-7-9-9-9-9---| x2
--------------------5-5-5-5-7-7-7-7---|


Riff 2
---x-4-x-4-x-4-x-4-x-5-x-5-x-5-x-5-x-7-x-7-x-7-x-7-x-5-x-5-x-5-x-5---|
---x-5-x-5-x-5-x-5-x-5-x-5-x-5-x-5-x-7-x-7-x-7-x-7-x-5-x-5-x-5-x-5---|
---x-4-x-4-x-4-x-4-x-6-x-6-x-6-x-6-x-8-x-8-x-8-x-8-x-6-x-6-x-6-x-6---|
-------------------x-7-x-7-x-7-x-7-x-9-x-9-x-9-x-9-x-7-x-7-x-7-x-7---|
---------------------------------------------------------------------|
---------------------------------------------------------------------|

---x-4-x-4-x-4-x-4-x-5-x-5-x-5-x-5-x-7-x-7-x-7-x-7-x-5---------------|
---x-5-x-5-x-5-x-5-x-5-x-5-x-5-x-5-x-7-x-7-x-7-x-7-x-5---------------|
---x-4-x-4-x-4-x-4-x-6-x-6-x-6-x-6-x-8-x-8-x-8-x-8-x-6-(let it ring)-|
-------------------x-7-x-7-x-7-x-7-x-9-x-9-x-9-x-9-x-7---------------|
---------------------------------------------------------------------|
---------------------------------------------------------------------|


---4---------------5-------7---|
---5---------------5-------7---|
---4---------------6-------8---|
---6---------------7-------9---|
-------------------------------| x2
-------------------------------|
^^^either let them ring out or
   pick them or make your own
   fills^^^


Riff 3
---------------------------------------------------------------------|
---------------------------------------------------------------------|
---9-9-9-9-9-9-9-9-----------------9-9-9-9-9-9-9-9-------------------|
---9-9-9-9-9-9-9-9-7-7-7-7-9-9-9-9-9-9-9-9-9-9-9-9-7-7-7-7-7-7-7-7---|
---7-7-7-7-7-7-7-7-7-7-7-7-9-9-9-9-7-7-7-7-7-7-7-7-7-7-7-7-7-7-7-7---|
-------------------5-5-5-5-7-7-7-7-----------------5-5-5-5-5-5-5-5---|
    pm..........pm  pm..pm   pm.pm  pm..........pm


-------------------------------------|
-------------------------------------|
-------------------------------------|
---9-9-9-9-9-9-9-9-7-------9---------|
---9-9-9-9-9-9-9-9-7-------9---------|
---7-7-7-7-7-7-7-7-5-------7---------|


Replay Riff 1 to finish song
comments
We did not receive enough feedback on this tab! Please rate:
print report bad tab
1 2 3 4 5
I want to post or [tab]
guest
You may want to rate the tab now too:
select rating
Please do not post tabs as comments. Select "correction" instead!